3 Doors Down - The Road Im On Chords & Tabs

 

The Road Im On Chords & Tabs

3 Doors Down Chords & Tabs

Version: 5 Type: Tab 0 ratings
1 star 2 stars 3 stars 4 stars 5 stars
comments

The Road Im On Tab

Title: The road im on solo
Artist: 3 doors down
Tabbed by: FjOmPN( please give me comments on my e-mail. brudesvenn@hotmail.com)

Realized that none of the tabs to this song includes the solo, so here it is. It's 
close to 100% correct


E---12(hold)------------------------------------12---------------|
B----------------------------------------------------------------|
G----------------12--14^r-14^r-14^r--14-12-----------------------|
D-------------------------------------------14-------------------|
A----------------------------------------------------------------|
E----------------------------------------------------------------|
[ Tab from: http://www.guitartabs.cc/tabs/0-9/3_doors_down/the_road_im_on_tab_ver_5.html ]
E----------------------------------------------------------------|
B----------------------------------------------------------------|
G----------------------------------------------------------------|
D------5h7--7^r-7-----7-5-----5----------------------------------|
A--5h7---------------------7-----7-5-----------------------------|
E-------------------------------------7-5-7-5-3--5-3-5-3-0-5-3-0-|

E----------------------------------------------------------------|
B----------------------12----------------------------------------|
G----------------12h14-----12-14-12----------12------------------|
D--------5--------------------------14---14-----14-12-14---------|
A--5-5h7----7----------------------------------------------------|
E----------------------------------------------------------------|

E----------------------------------------------------------------|
B----------------------------------------------------------------|
G----------------------------------------------------------------|
D------5h7-7^r--5---5--------------------------------------------|
A--5h7------------7---7-5-7--------------------------------------|
E----------------------------------------------------------------|

Thats it. Its pretty cool I think. Listen to the song for rythm.
Comments