3 Doors Down - The Real Life Chords & Tabs

 

The Real Life Chords & Tabs

3 Doors Down Chords & Tabs

Version: 1 Type: Tab 2 ratings
1 star 2 stars 3 stars 4 stars 5 stars
comments

The Real Life Tab

   
Intro
e--------------------------|
B-----3-2-----3-2------3-0-|
G-4-------2----------------|
D-4 x2----2 x2-------------|
A-2-------0-------2--------|
E-----------------3 x2-----|


e-----------------------------|
B-----3-2-----1/2-2-------3-0-|
G-4-------2--------3----------|
D-4 x2----2 x2----------------|
A-2-------0----------2--------|
E--------------------3 x2-----|
[ Tab from: http://www.guitartabs.cc/tabs/0-9/3_doors_down/the_real_life_tab.html ]
e--------------------------|
B-----3-2-----3-2------3-0-|
G-4-------2----------------|
D-4 x2----2 x2-------------|
A-2-------0-------2--------|
E-----------------3 x2-----|


e----------------------------|
B-----3-2-----1/2--------3-0-|
G-4-------2------------------|
D-4 x2----2 x2---------------|
A-2-------0---------2--------|
E-------------------3 x2-----|


Verse
B A G (X4)

Chorus

B A G
B A G A2/F# (X2)

Bridge

A G B (X4)
Comments