3 Doors Down - The Better Life Chords & Tabs

 

The Better Life Chords & Tabs

3 Doors Down Chords & Tabs

Version: 1 Type: Tab 0 ratings
1 star 2 stars 3 stars 4 stars 5 stars
comments

The Better Life Tab

#----------------------------------PLEASE NOTE--------------------------------#
#This file is the author's own work and represents their interpretation of the#
#song. You may only use this file for private study, scholarship, or research.#
#-----------------------------------------------------------------------------#
#-- File created with Instab - http://www.pconline.com/~smcarey/instab.html --#
#-----------------------------------------------------------------------------#

Author/Artist: 3 Doors Down
Title: The Better Life
Album: The Better Life
Transcribed by: Sam Stuntz
Email: spacemanspif88@yahoo.com

I've read a ton of incomplete tabs for this song, and I think it's an awesome guitar song, so I've decided to tab it myself (it's one of my first tabs, so be nice).  Hope you like it!

Intro
------------------------------------------------------------------------------
------------------------------------------------------------------------------
-------------------------------------------------------------4----------------
-2--4-----4-----2--4-----4-----7--4-----4-----2--4-----4-----4--4--2-4---2----
-2--4-----4-----2--4-----4-----5--4-----4-----2--4-----4-----2--4--2-4---2----
-0--2-x-x-2-x-x-0--2-x-x-2-x-x-5--2-x-x-2-x-x-0--2-x-x-2-x-x----2--0-2---0----
                                                                              

------------------------------------------------------------------------------
------------------------------------------------------------------------------
------------------------------------------------------------------------------
-4--2-4---7--4--2-4---2--4--2-4-----------------------------------------------
-4--2-4---5--4--2-4---2--4--2-4-----------------------------------------------
-2--0-2---5--2--0-2---0--2--0-2-----------------------------------------------
                                                                              
Intro/Verse
------------------------------------------------------------------------------
------------------------------------------------------------------------------
------------------------------------------------------------------------------
-------------7-----------------------------7------------9br--------------7----
-7h9-9-9-9-7----7h9-9-9-9-7----7h9-9-9-9-7----7h9-9-9-7------7h9-9-9-9-7------
----------------------------7-------------------------------------------------
                                                                              
[ Tab from: http://www.guitartabs.cc/tabs/0-9/3_doors_down/the_better_life_tab.html ]
------------------------------------------------------------------------------
------------------------------------------------------------------------------
------------------------------------------------------------------------------
----------------------------7-------------------------------------------------
-7h9-9-9-9-7----7h9-9-9-9-7----7h9-9-9-----9----------------------------------
-------------7-------------------------7-9------------------------------------
                                                                              
Chorus
------------------------------------------------------------------------------
------------------------------------------------------------------------------
-11---12---14---12---11--9----------------------------------------------------
-11---12---14---12---11--9--7---7----9-------4---5---7---5---4--2--7---7----9-
-9----10---12---10---9---7--7---7----9-------4---5---7---5---4--2--7---7----9-
-9----10---12---10---9---7--5---5----7-------2---3---5---3---2--0--5---5----7-
                                                                              
Fill-In
------------------------------------------------------------------------------
------------------------------------------------------------------------------
------------------------------------------------------------------------------
-------------5-----------------------------5------------7br--------------5----
-5h7-7-7-7-5----5h7-7-7-7-5----5h7-7-7-7-5----5h7-7-7-5------5h7-7-7-7-5------
----------------------------5-------------------------------------------------
                                                                              

------------------------------------------------------------------------------
------------------------------------------------------------------------------
------------------------------------------------------------------------------
----------------------------5-------------------------------------------------
-5h7-7-7-7-5----5h7-7-7-7-5----5h7-7-7-----5----------------------------------
-------------5-------------------------5-7------------------------------------
                                                                              
Solo
------------------------------------------------------------------------------
------------------------------------------------------------------------------
------------------------------------------------------------------------------
-----------------------------------0------------------------------------------
-------------0---2--3------------------3----------------0---2--3--------------
-0---2---3-------------0---2---3------------0---2---3-------------0---2---3---
                                                                              

----------------------------3v-----3---------2h3-5--7---5---3--2--------------
----------0------0------------------------------------------------5---3---5---
------------------------------------------------------------------------------
-0--------7b9---r7b9----------------------------------------------------------
-----3------------------------------------------------------------------------
------------------------------------------------------------------------------
                                                                              
2nd Fill-In
------------------------------------------------------------------------------
------------------------------------------------------------------------------
------------------------------------------------------------------------------
-------------7-----------------------------7----------------------------------
-7h9-9-9-9-7----7h9-9-9-9-7----7h9-9-9-9-7----7h9-9-9-----9-------------------
----------------------------7-------------------------7-9---------------------

Order:

Intro 
Intro/Verse (2x) The second time you play it, mute all the notes on the A string (it may sound stupid, but it actually does work that way)
Chorus
Intro/Verse (2x) See above
Chorus
Fill-In
Solo
Fill-In
2nd Fill-In
Chorus (2x)
Intro
Comments