3 Doors Down - So I Need You Chords & Tabs

 

So I Need You Chords & Tabs

3 Doors Down Chords & Tabs

Version: 1 Type: Tab 0 ratings
1 star 2 stars 3 stars 4 stars 5 stars
comments

So I Need You Tab

3 Doors Down - So I Need You
      

Each (-) represents 1/16th note.

Intro
Gtr 1(clean) 
|----------------|--0---0---0---0-|----0-----------|----------------|
|0---0-----------|--3---3---3---3-|----1-1-3-3-----|--------------7-|
|7---7---7-7---0-|--0---0---0---0-|0---0-0-0-0-0-4-|--4-4-4-4-4-4---|
|5---5---5-5---4-|--4-4-4-4-4-4-4-|2---2-2-2-2-2-4-|--4-4-4-4-4-4-4-|
|7---7---7-7---5-|----5---5---5---|3---3---3---3-2-|--2-2-2-2-2-2---|
|0---0---0---x---|----------------|----------------|----------------|
|
|Gtr 2(dist.)partial P.M.
|----------------|----------------|----------------|----------------|
|----------------|----------------|----------------|----------------|
|----------------|----------------|----5-----5-----|----------------|
|------------7-7-|7/9\7-7/9\7---5-|5-5-5-5-5-5---4-|4-4-4/5---4-----|
|----2-----2-5-5-|5/7\5-5/7\5-0-3-|3-3-3-3-3-3-2-2-|2-2-2/3---2-----|
|0-0-0-0-0-0--0-0|----------------|----------------|------------3-2-|

Gtr1
|----------------|----------------|----------------|----------------|
|8---8---8-8---7-|--7---7-7-7-7---|5---5-xx5-5---7-|--7---8---8-8-x-|
|----------------|----------------|----------------|----------------|
|5---5---5-5---4-|--4---4-4-4-4---|2---2-xx2-2---4-|--4---5---5-5-x-|
|----------------|----------------|----------------|----------------|
|----------------|----------------|----------------|----------------|
|
|Gtr2
|----------------|----------------|----------------|----------------|
|----------------|----------------|----------------|----------------|
|----9-----9---7-|--7---7---------|----------------|----------------|
|9---9-----9---7-|--7---7-/9-7----|5---5---5-7-5-4-|--4---5---4-----|
|7---7---7-7---5-|--5---5-/7-5-0--|3---3-333-5-3-2-|--2-0-3---2-----|
|0---0-000---0---|----5-----------|----------------|------------3-2-|
       ..    .        .        .         ..             .       . . 

Both Gtrs(dist.)
|---------------------|------------------------|
|10---10---10-10---12-|--12----12----12-12-1010|
|---------------------|------------------------|
|-7----7----7--7----9-|---9-----9-----9--9--7-7|
|---------------------|------------------------|
|---------------------|------------------------|

|------------------------|----------------|
|10-121212-xx13---10---7-|--8-------------|
|------------------------|------9---7-9-7-|
|-7--9-9-9-xx10----7---4-|--5-------------|
|------------------------|------7---5-7-5-|
|------------------------|----------------|
[ Tab from: http://www.guitartabs.cc/tabs/0-9/3_doors_down/so_i_need_you_tab.html ]
Verse (dist.)
|----------------|----------------|----------------|----------------|
|----------------|----------------|----------------|----------------|
|--------------7-|----7-----7-----|--------------2-|--2---2-2-2-2-0-|
|2---2-----2---7-|----7-----7-----|----5-----5---2-|--2---2-2-2-2-0-|
|2---2---2-2---5-|--5-5-5-5-5-5---|5---5-----5---0-|--0-x-0-0-0-0-0-|
|0---0-0-0---0---|--------------3-|3-3-3-3-3-3-3---|----------------|
       .     .      .   . .   . .    .   . .   .      
PreChorus Gtr1(clean),Gtr2(dist.)
|----------------|----------------|----------------|----------------|
|----------------|----------------|----------------|----------------|
|----0-------0---|--7-----7-------|----0-------0---|--7-----7-------|
|--2-------4---5-|----5-----5-----|--2-------4---5-|----5-----5-----|
|3------/5-------|------7-----7\--|3------/5-------|------7-----7\--|
|----------------|----------------|----------------|----------------|

|----------------|----------------|----------------|----------------|
|----------------|----------------|----------------|----------------|
|----0-------0---|--7-----7-------|----0-----------|--0-----0-------|
|--2-------4---5-|----5-----5-----|--2---------2---|----4-----4---0-|
|3------/5-------|------7-----7\--|3---------3--/5-|------5-----5---|
|----------------|----------------|----------------|----------------|

PreChorus(2)(dist.)
|----------------|----------------|----------------|----------------|
|----------------|----------------|----------------|----------------|
|-------------/7-|--7---7--/9-7/9-|5---5---5-7-5-4-|--4---5---4-----|
|2---2---2-2--/7-|--7---7--/9-7/9-|5---5---5-7-5-4-|--4---5---4-5-4-|
|2---2---2-2--/5-|--5---5--/7-5/7-|3---3-333-5-3-2-|--2---3---2-5-4-|
|0---0-000-0-0---|----x-----------|----------------|----0-------3-2-|
       ..    .                           ..             .
Chorus
(same as Verse Riff)

PostChorus
|----------------|----------------|----------------|-------------------|
|----------------|----------------|----------------|-------------------|
|4-----------4-4-|7-----------7-7-|9-----------9-11|11-----12-12-11-11-|
|----------------|----------------|----------------|-------------------|
|2-----------2-2-|5-----------5-5-|7-----------7--9|-9-----10-10--9--9-|
|----------------|----------------|----------------|-------------------|

|----------------|----------------|----------------|-------------------|
|----------------|----------------|----------------|-------------------|
|4-----------4-4-|7-7-----7-7-7-9-|9-9-9-9-9-9-9-11|11-11-11-12-12---11|
|----------------|----------------|----------------|-------------------|
|2-----------2-2-|5-5-----5-5-5-7-|7-7-7-7-7-7-7--9|-9--9--9-10-10----9|
|----------------|----------------|----------------|-------------------|

Gtr Solo
|----------------|----------------|----------------|----------------|
|----------------|----------------|----------------|----------------|
|----------------|----------------|----------------|----------------|
|2-4-5-4~~~2---2-|--4-5-4---2---2-|--4-5-4---5--5/7|--5---4---2---0-|
|----------------|----------------|----------------|----------------|
|----------------|----------------|----------------|----------------|

|----------------|----------------|----------------|----------------|
|----------------|----------------|----------------|----------------|
|----------------|----------------|----------------|----------------|
|2-4-5-4~~~2---2-|--4-5-4---2---2-|--4-5-4---5--5/7|--5---4---5\----|
|----------------|----------------|----------------|----------------|
|----------------|----------------|----------------|----------------|


Outro
|----------------|----------------|----------------|----------------|
|----------------|----------------|----------------|----------------|
|----------------|----------------|----------------|----------------|
|5---5---5-5-5-7-|--7---7---7-7-7-|9---------------|(9)-------------|
|5---5---5-5-5-7-|--7---7---7-7-7-|7---------------|(7)-------------|
|3---3---3-3-3-5-|--5-5-5---5-5-5-|0---------------|(0)-------------|

Song Order:

Intro 		x1
Verse 		x2
PreChorus	x1
Prechorus(2)    x4
Chorus		x2
Verse 		x2
PreChorus	x1
Prechorus(2)    x4
Chorus		x2
PostChorus	x1
Gtr Solo	x1
PreChorus(2)    x1
Chorus          x2
PostChorus	x1
Outro		x1
Comments