3 Doors Down - Smack Chords & Tabs

 

Smack Chords & Tabs

3 Doors Down Chords & Tabs

Version: 1 Type: Tab 0 ratings
1 star 2 stars 3 stars 4 stars 5 stars
comments

Smack Tab

   
3 Doors Down - Smack
    

Intro
e|----------------|--------------|
B|----------------|--------------|
G|----------------|--------------|
D|9-9---2---2-2---|5-5---7--7-7--| x6  (2nd Guitar/Bass/Drums
A|9-9---2---2-2---|5-5---7--7-7--|      enter on 3rd time)
E|7-7---0---0-0---|3-3---5--5-5--|
[ Tab from: http://www.guitartabs.cc/tabs/0-9/3_doors_down/smack_tab.html ]
Verse
e|----------------|--------------------|
B|----------------|--------------------|
G|--------7-7---7-|--------11-11-10-10-| x8
D|9-9---9-7-7---7-|7-7---7-11-11-10-10-|
A|9-9---9-5-5---5-|7-7---7--9--9--9--9-|
E|7-7---7---------|5-5---5-------------|
  
Chorus
e|----------------|----------------|
B|----------------|----------------|
G|----------------|----------------| x4
D|9---9---2---2---|5---5---7---7---|
A|9---9---2---2---|5---5---7---7---|
E|7---7---0---0---|3---3---5---5---|
 a
Verse
e|----------------|--------------------|
B|----------------|--------------------|
G|--------7-7---7-|--------11-11-10-10-| x8
D|9-9---9-7-7---7-|7-7---7-11-11-10-10-|
A|9-9---9-5-5---5-|7-7---7--9--9--9--9-|
E|7-7---7---------|5-5---5-------------|
 
Chorus
e|----------------|----------------|
B|----------------|----------------|
G|----------------|----------------| x4
D|9---9---2---2---|5---5---7---7---|
A|9---9---2---2---|5---5---7---7---|
E|7---7---0---0---|3---3---5---5---|
 
Bridge
e|----------------|----------------|
B|----------------|----------------|
G|----------------|----------------| x4
D|9-----9---10----|9-----9---7-----|
A|9-----9---10----|9-----9---7-----|
E|7-----7---8-----|7-----7---5-----|
 

Verse
e|----------------|--------------------|
B|----------------|--------------------|
G|--------7-7---7-|--------11-11-10-10-| x8
D|9-9---9-7-7---7-|7-7---7-11-11-10-10-|
A|9-9---9-5-5---5-|7-7---7--9--9--9--9-|
E|7-7---7---------|5-5---5-------------|
Comments