3 Doors Down - Smack Chords & Tabs

 

Smack Chords & Tabs

3 Doors Down Chords & Tabs

Version: 2 Type: Bass Tab 0 ratings
1 star 2 stars 3 stars 4 stars 5 stars
comments

Smack Bass Tab

Artist: 3 Doors Down
Title: Smack
Album: The Better Life
Tabbed By:  MrFloyd 

This song is really easy.  The bass pretty much mirrors the guitar. 

Bass comes in in the third measure
Intro (x4)
G---------------------------------
D---------------------------------  
A---------------------------------  
E----/7-7--0-0-0-0--3-3--5-5-5-5--

Verse (x8)
G------------------------------------
D------------------------------------
A-----------5-5--5----------9-9-8-8--
E---7-7--7---------5-5--5------------

Chorus (x4)
G---------------------------------
D---------------------------------  
A---------------------------------  
E----/7-7--0-0-0-0--3-3--5-5-5-5--
[ Tab from: http://www.guitartabs.cc/tabs/0-9/3_doors_down/smack_btab_ver_2.html ]
Verse (x8)
G------------------------------------
D------------------------------------
A-----------5-5--5----------9-9-8-8--
E---7-7--7---------5-5--5------------

Chorus (x4)
G---------------------------------
D---------------------------------  
A---------------------------------  
E----/7-7--0-0-0-0--3-3--5-5-5-5--

Bridge (x4)
G-------------------------------
D-------------------------------
A----------3------------1-------
E--3/5-3/5-----1/3-1/3----------

Outro (x5)
G------------------------------------
D------------------------------------
A-----------5-5--5----------9-9-8-8--
E---7-7--7---------5-5--5------------

End Note:
G---------
D---------
A---------
E---7\----
Comments