3 Doors Down - Sarah Yellin Chords & Tabs

 

Sarah Yellin Chords & Tabs

3 Doors Down Chords & Tabs

Version: 1 Type: Tab 0 ratings
1 star 2 stars 3 stars 4 stars 5 stars
comments

Sarah Yellin Tab

#-----------------------------------------------------------------------------#
#-- File created with Instab - http://www.pconline.com/~smcarey/instab.html --#
#-----------------------------------------------------------------------------#

Author/Artist: Three Doors Down
Title: Sarah Yellin
Album: Away From then Sun
Transcribed by: Brad Davis
Email: Polokid91@hotmail.com

Easy song to play..just listen for timing and have fun
with it...check out my other two new 3 doors down 
tabs: when im gone and going down in flames

------------------------------------------------------------------------------
------------------------------------------------------------------------------
---------------5--4--2--------------------------------------------------------
---4---4--2-4--5--4--2--------------------------------------------------------
---4---4--2-4--3--2--0--------------------------------------------------------
-0-2-0-2--0-2-----------------------------------------------------------------
 Thats basically the intro riff..2nd guitar seems to have a wah effect        

------------------------------------------------------------------------------
------------------------------------------------------------------------------
------------------------------------------------------------------------------
------------------------------------------------------------------------------
---------------3-3-3-3-2-2-2-0-2----------------------------------------------
-2-2-2-2-2-2-2-------------------2--------------------------------------------
 (PM)"she says ive got stuff to say"                                          

------------------------------------------------------------------------------
------------------------------------------------------------------------------
-----------5--------5-------4----4--------------------------------------------
--4-----4--5--------5-------4----4--------------------------------------------
--4-----4--3--------3-------2----2--------------------------------------------
--2-2-2-2---------------------------------------------------------------------
  "mother, let them take my soul away"                                        
[ Tab from: http://www.guitartabs.cc/tabs/0-9/3_doors_down/sarah_yellin_tab.html ]
------------------------------------------------------------------------------
------------------------------------------------------------------------------
-2----------------------------------------------------------------------------
-2---2---4--------------------------------------------------------------------
-0-0-2---4--------------------------------------------------------------------
-----0-0-2-2-2-2-2------------------------------------------------------------
  (chorus) "now its over"                                                     

------------------------------------------------------------------------------
------------------------------------------------------------------------------
--11--------------------------------------------------------------------------
------10--9-------------------------------------------------------------------
------------------------------------------------------------------------------
------------------------------------------------------------------------------
 this is played with wah before the 2nd verse. sounds good tremolo picked     

------------------------------------------------------------------------------
------------------------------------------------------------------------------
------------------------------------------------------------------------------
-4-4-4-4-4-4-4-4-4-4-4-4-4-4-4-4-4-4-4-4-4-4-4-4------------------------------
-------------------------4-4-4-4-4-4-4-4-4-4-4-4------------------------------
-2-2-2-2-2-2-2-2-2-2-2-2-2-2-2-2-2-2-2-2-2-2-2-2------------------------------
 tremolo pick this with your wah on bass and gradually going to treble        

------------------------------------------------------------------------------
------------------------------------------------------------------------------
-12-14-12--14-12-14-12-14-12---11-9-11-9--------------------------------------
---/--\---/--\--/--\--/--\-------\-/--\---------------------------------------
-10-12-10--12-10-12-10-12-10---9--7-9--7--------------------------------------
------------------------------------------------------------------------------
 after "theres a bullet in your head" repeat 3x and listen for timing         

Comments