3 Doors Down - Right Where I Belong Chords & Tabs

 

Right Where I Belong Chords & Tabs

3 Doors Down Chords & Tabs

Version: 1 Type: Tab 0 ratings
1 star 2 stars 3 stars 4 stars 5 stars
comments

Right Where I Belong Tab

   
Tab: 3 Doors Down/Right Where I Belong/Seventeen Days
Tabber: Quinton/Tru

This tab is pretty correct except for the verse and the solo, but the intro and the
chorus are correct as far as i know. My tabs aren't perfect I just give evry one the
jist, cuz I'm way to lazy to tab everything that i know of the song. It's better for
you guys to figure it out on your own, to make you a better musician.


Tuning: E A D G B E

Intro/ verse: pretty fast picking
e|-----------------------------------------------------|
B|-----------------------------------------------------|
G|-----------------------------------------------------|
D|-----------------------------------------------------|
A|---0--0---3h5/6\5--3p0---3p0--0----------------------|
E|-----------------------------------5-5---------------|


e|-----------------------------------------------------|
B|-----------------------------------------------------|
G|-----------------------------------------------------|
D|-----------------------------------------------------|
A|----0--0---3h5/6\5--3p0-----5--5---------------------|
E|----------------------------3--3---------------------|
[ Tab from: http://www.guitartabs.cc/tabs/0-9/3_doors_down/right_where_i_belong_tab.html ]
Chorus: fast also
e|-----------------------------------------------------|
B|-----------------------------------------------------|
G|-----------------------------------------------------|
D|--------------5------7------------------5------------|Repeat a couple of times
A|--5------7----3------5------5-----7-----3------------|
E|--3------5------------------3-----5------------------|

Bridge: repeatedly softly strumming an A chord
e|-----------------------------------------------------|
B|-----------------------------------------------------|
G|-----------------------------------------------------|
D|---7-~~----------------------------------------------|
A|---7-~~----------------------------------------------|
E|---5-~~----------------------------------------------|

Chords during solo:
e|-----------------------------------------------------|
B|-----------------------------------------------------|
G|-----------------------------------------------------|
D|--------------5------7------------------5------------|Repeat a couple of times
A|--5------7----3------5------5-----7-----3------------|
E|--3------5------------------3-----5------------------|






| /  slide up
| \  slide down
| h  hammer-on
| p  pull-off
| ~  vibrato
| +  harmonic
| x  Mute note
Comments