3 Doors Down - Not Enough Chords & Tabs

 

Not Enough Chords & Tabs

3 Doors Down Chords & Tabs

Version: 4 Type: Tab 0 ratings
1 star 2 stars 3 stars 4 stars 5 stars
comments

Not Enough Tab

Band- 3 Doors Down
Song- Not Enough

intro
e|----------------------------|
B|----------------------------|
G|------0---0----0-----0------|
D|----2----2---------0---0----|
A|--0----3-----3---5------5---|
E|-----------1----3--------3--|

2nd guitar just plays:
e|--17--------|
B|----17------|

e|------------------------|---------------|
B|------------------------|---------------|
G|------------------------|---------------|
D|------------------------|2-5------------|
A|-5-5-7-7--10-3-3-5-5----|0-3-3--5-5-5---|
E|-3-3-5-5--8--1-1-3-3----|----1--3-3-3---|
[ Tab from: http://www.guitartabs.cc/tabs/0-9/3_doors_down/not_enough_tab_ver_4.html ]
solo:               
e|----------------|--------------------------------------|
B|----------------|--5------5------5---------------------|
G|--5-4-----------|-^7(9)--^7(9)--^7(9)-^7(9)r-7p5-7--5--|
D|------5---5-7---|------------------------------------7-|
A|--------7-------|--------------------------------------|
E|----------------|--------------------------------------|

e|--------------------|-------------|----------------------|
B|------8--10---------|8p5----8p5---|----------------------|
G|--7/9--9---9--------|---7p5----7p5|--7^(9)--7^(9)~-7-5---|
D|--------------5-----|-------------|--------------------7-|
A|----------------7-7-|-------------|----------------------|
E|--------------------|-------------|----------------------|

end on:
G|-0--|
D|-0--|
A|-3--|
E|-1--|
Comments