3 Doors Down - Not Enough Chords & Tabs

 

Not Enough Chords & Tabs

3 Doors Down Chords & Tabs

Version: 3 Type: Tab 0 ratings
1 star 2 stars 3 stars 4 stars 5 stars
comments

Not Enough Tab

   
Basically, the song evovles around the A,C,F and G chords.
This song has two guitarists, with the second guitarist 
playing some trillings in the song.  There is also a lead but I haven't figured it out yet 
so it's not in this tab.

Intro :

   A   C   F   G
|---------------|
|--2---1--------|
|--2---0---2---4|
|--2---2---3---5|
|----------3---5|
|---------------|
[ Tab from: http://www.guitartabs.cc/tabs/0-9/3_doors_down/not_enough_tab_ver_3.html ]
 A  A A A   C   C  C  C    F  F F F   G  G G G    
|---------------------------------------------|
|---------------------------------------------|
|---------------------------------------------|
|---------------------------------------------|
|7--7-7-7---11--11-11-11---3--3-3-3---5--5-5-5|
|5--5-5-5---8---8--8--8----1--1-1-1---3--3-3-3|


Verse/Bridge :


   A   C   F   G
|---------------|
|--2---1--------|
|--2---0---2---4|
|--2---2---3---5|
|----------3---5|
|---------------|


Chorus :

 A  A A A   C   C  C  C    F  F F F   G  G G G    
|---------------------------------------------|
|---------------------------------------------|
|---------------------------------------------|
|---------------------------------------------|
|7--7-7-7---11--11-11-11---3--3-3-3---5--5-5-5|
|5--5-5-5---8---8--8--8----1--1-1-1---3--3-3-3|


Outro :



   A   C   F   G
|---------------|
|--2---1--------|
|--2---0---2---4|
|--2---2---3---5|
|----------3---5|
|---------------|
Comments