3 Doors Down - Never Will I Break Chords & Tabs

 

Never Will I Break Chords & Tabs

3 Doors Down Chords & Tabs

Version: 2 Type: Tab

Never Will I Break Tab

   
C5 - 8 10 10  x  x  x
A5 - 5  7  7  x  x  x
D5 - x  5  7  7  x  x
E5 - x  7  9  9  x  x

Intro

E----------------------------------------------------------------------|
B----------------------------------------------------------------------|
G--13--14--13--9---9-11--13--14--13---17--16--14--14--16--11--12-------|
D---x---x---x--x---x--x---x---x---x----x---x---x---x---x---x---x-------|
A--11--12--11--7---7--9--11--12--11---15--14--12--12--14---9--10-------|
E----------------------------------------------------------------------|
[ Tab from: http://www.guitartabs.cc/tabs/0-9/3_doors_down/never_will_i_break_tab_ver_2.html ]
Verse (repeats throughout verses)

E----------------------------------------------------------------------|
B----------------------------------------------------------------------|
G----------------------------------------------------------------------|
D---------5------------------------------5-----------------------------|
A----5h7----7-------5h7------7------5h7----7---------5h7---------------|
E-0------------5h7------5h7-----0---------------5h7-------5---3--------|

Chorus

C5 A5 C5 D5

E5 C5 D5

enjoy!