3 Doors Down - My World Chords & Tabs

 

My World Chords & Tabs

3 Doors Down Chords & Tabs

Version: 1 Type: Tab 0 ratings
1 star 2 stars 3 stars 4 stars 5 stars
comments

My World Tab

   
-----------------------------------------------------------------
My World - 3 Doors Down
-----------------------------------------------------------------
Tabbed by: Swish
Email: Himmelsuchen@aol.com

Tuning: Standard (EADGBe)


Intro:
e|-----------------------------------------------------------------|
B|-----------------------------------------------------------------|
G|------------------------------------------------------12*--------|
D|----------5------7---------------5-------5---------12*-----------|
A|----/-7----------5---------/-7-----------3-----------------------|
E|-----------------------------------------------------------------|
                                                                 *harmonic
e|-------------------------------------------------------------------|
B|-------------------------------------------------0---0h1-----------|
G|------------------------------------------------------------2------|
D|----------5------7---------------5-------5-------------------------|
A|----/-7----------5---------/-7-----------3-------------------------|
E|-------------------------------------------------------------------|

Verse: Same as above (omit the harmonics)

Pre-chorus Chords:
	A2	{x0220x}
	G5	{355xxx}
	B5	{x244xx}
[ Tab from: http://www.guitartabs.cc/tabs/0-9/3_doors_down/my_world_tab.html ]
1st Chorus:
(the theme riff is played behind the chorus while these chords are strummed.)
                E                  D                    E                  C
But that's not the world I live in, this is not the life for me
                            E                         D                          E               C
'cause my world's bigger than your problems and it's bigger than me.
                E                  D                    E                  C
But that's not the world I live in, this is not the life for me
                            E                         D           C
'cause my world's bigger than your problems and it's bigger than me.

Second Verse: Same as above.
Pre-chorus: Same as above.

Chorus:
                E                                            D                   E
But that's not the world I live in, this is not the life for me
                             C                                                      B               D
'cause my world's bigger than your problems and it's bigger than me.
                E                                            D                   E
But that's not the world I live in, this is not the life for me
                             C                                                      B               D
'cause my world's bigger than your problems and it's bigger than me.
           E               B                 C              D
'Cause I'm on the outside and I'm looking in.

Chorus

Outro Riff:
e|-----------------------------------------------------------------------------|
B|-----------------------------------------------------------------------------|
G|--------------------------7------------7-------------------------------------|
D|-------------9-----------5-------------4-------------7-------7-/--9----------|
A|-------------7---x---x--------x---x------------------5-------5-/--7----------|
E|---0---0-------------------------------------x----x-------x------------------|


| / slide up
| \ slide down
| h hammer-on
| p pull-off
| ~ vibrato
| + harmonic
| x Mute note
Comments