3 Doors Down - Love Me When Im Gone Chords & Tabs

 

Love Me When Im Gone Chords & Tabs

3 Doors Down Chords & Tabs

Version: 1 Type: Bass Tab 0 ratings
1 star 2 stars 3 stars 4 stars 5 stars
comments

Love Me When Im Gone Bass Tab

 woah this is my first tab can you tell? im pretty sure this isn't EXACT but at least it 
ok when i play it so use my timing if you want it to sound good.i did a rusted job if 
rate it give me a 5 star vote cuz its pretty good for not even playing the bass i play
the regular one. ok here it is.

thers another world inside of me that you may never see,
-------------------------------------------------------------|
-------------------------------------------------------------|
-------------------------------------------------------------|
--------0-------0-----2----------0--------3--2--------0------|

theres secrets in this life that i can hide,
----------------------------------------------------|
----------------------------------------------------|
----------------------------------------------------|
---------------2---2-----3--2------------0----0-----|

well somewere in this darkness theres a lite that i cant find,
--------------------------------------------------------------------|
--------------------------------------------------------------------|
--------------------------------------------------------------------|
---------3-------------4--------3-------0-------------------------3-|
[ Tab from: http://www.guitartabs.cc/tabs/0-9/3_doors_down/love_me_when_im_gone_btab.html ]
well maybe its to far away, yeah, well maybe im just blind,
----------------------------------------------------------------------------|
----------------------------------------------------------------------------|
----------------------------------------------------------------------------|
-------3-----3--4--3------0----2------------------------0---2-----0-----2---|


chorus use you own timing. no words ha ha.

--------------------------------------------------|
--------------------------------------------------|
--------------------------------------------------|
---2-4-5-7-5-4-2-      repeat 10------------------| times

solo 1
-----------------------------------------------|
-------5---------5-----5-----------------------|
----7-----5---7-----7------5-------------------|
-----------------------------------------------|

verse. go up and play last one, just use your own timing.

chorus.

solo 2
-------------------------------------------------------------|
-------------------------------------------------------------|
-------------------------------------------------------------|
--2--4--5--4--2----------------------------------------------|   repeat 4 times

maybe im just blind..
-----------------------------------------|
-----------------------------------------|
-----------------------------------------|
--0--0--0--0--0--0--0--0-----------------|

solo 3
-----------------------------------------|
-----------------------------------------|
-----------------------------------------|
--4-0-2-4-2-0----------------------------|
end
Comments