3 Doors Down - Life Of My Own Chords & Tabs

 

Life Of My Own Chords & Tabs

3 Doors Down Chords & Tabs

Version: 1 Type: Tab 0 ratings
1 star 2 stars 3 stars 4 stars 5 stars
comments

Life Of My Own Tab

   
3 Doors Down - Life Of My Own
     

  1 - Intro/Verse
E |--------------------------|----------------------------------------|
B |--------------------------|----------------------------------------|
G |------------------------0-|----------------------------0-----------|
D |----9-----0-------4---4-5-|----9-----0-----------------------------|
A |--7-----7-----5-----5-----|--7-----7------------9----9-------------|     
E |0-----8-------------------|0-----8-------8/10-----10---------------|
   (both of these are the same notes ... play it how you like)

E |3----2----1---|
B |--3----3----2-|
G |----2----2----|
   (litte fill in the verse -- it's an arpeggiated Dsus4 - D - Dsus2)

  2 - Chorus

   E5  G5  D5                                                                                                                           
E |-------------------------------------------------------------------|
B |-------------------------------------------------------------------|
G |--------7----------------------------------------------------------|
D |2---5---7----------------------------------------------------------|
A |2---5---5----------------------------------------------------------|
E |0---3--------------------------------------------------------------|
  
   3 - Solo 
[ Tab from: http://www.guitartabs.cc/tabs/0-9/3_doors_down/life_of_my_own_tab.html ]
 E |-------------------------------------------------------------------|
 B |-------------------------------------------------------------------|
 G |7/9-9-9-9\7-7/9--9-9-9-9\7-7-7-7/9-9-9-9/11-11-11-11/12-12/14-12/16|
 D |-------------------------------------------------------------------|
 A |-------------------------------------------------------------------|
 E |-------------------------------------------------------------------|
                                                                                                         
 E |-------------------------------------------------------------------|
 B |-------------------------------------------------------------------|
 G |16\14-14-14-14\12-12---12\11-11\9-9/11-11----------12-11---9-7-9---|
 D |---------------------------------------------12-14-----------------|
 A |-------------------------------------------------------------------|
 E |-------------------------------------------------------------------|

E |-------------------------------------------------------------------|
B |-------------------------------------------------------------------|
G |----------11h12-16-14-12-11----------------0-2---0-----------------|
D |-----12h14---------------------2-------2-4---------4-2---0-2-------|
A |12h14------------------------------4-5-----------------------------|
E |---------------------------------0---------------------------------|

E |-------------------------------------------------------------------|
B |-------------------------------------------------------------------|
G |--------------11h12-12/16-14---12-11-------------------------------|
D |-----12h14-12--------------------------12-14-----------------------|
A |12h14--------------------------------------------------------------|
E |-------------------------------------------------------------------|

E |-------------------------------------------------------------------|
B |-------------------------------------------------------------------|
G |--------------------------11-x-11---11-11--11-11-12---12-12-12-----|
D |14---12-12-12-14---14-14-------------------------------------------|
A |--------------------------9--x-9----9--9---9--9--10---10-10-10-----|
E |12---10-10-10-12---12-12-------------------------------------------|

E |-------------------------------------------------------------------|
B |---------------------------------15--------------------------------|
G |12-12-12/14-14-14---16-x-16---16-----------------------------------|
D |---------------------------------12--------------------------------|
A |10-10-10/12-12-12---14-x-14---14-----------------------------------|
E |-------------------------------------------------------------------|
Comments