3 Doors Down - Let Me Go Chords & Tabs

 

Let Me Go Chords & Tabs

3 Doors Down Chords & Tabs

Version: 3 Type: Tab 0 ratings
1 star 2 stars 3 stars 4 stars 5 stars
comments

Let Me Go Tab

3 Doors Down
Seventeen Days
"Let Me Go"
Standard Tuning
This is my personal way of playing the song. Enjoy

Intro
Guitar 1 (Rhythm)
e-------------------------------------------------|
B-------------------------------------------------|
G-4/6-66-4-44-2-22-4-44-4---4/6-66-4-44------2----|
D-4/6-66-4-44-2-22-4-44-4---4/6-66-4-44-4-44-2----|
A-2/4-44-2-22-0-00-2-22-2---2/4-44-2-22-4-44-0----|
E---------------------------------------2-22------|

Guitar 2 (Lead)
e-------------------------------------------------|
B-----------------------2---5h7-5-5~----4h5-5-4---|
G---------------------4--4-4----------------------|
D----------------------4--4-----------------------|
A--------------------2----------------------------|
E-------------------------------------------------|

Verse
Guitar 1
e------------------------------------------------------|
B------------------------------------------------------|
G-4/6-66-4-44-2-22-4-44-4---4/6-66-4-44-2-22-4-44-4----|
D-4/6-66-4-44-2-22-4-44-4---4/6-66-4-44-2-22-4-44-4----| x2
A-2/4-44-2-22-0-00-2-22-2---2/4-44-2-22-0-00-2-22-2----|
E------------------------------------------------------|

Guitar 2
e----------------------------------------------0-------|
B---------------------2-------------------------0------|
G-------------------4--4-------------------------------|
D--------------------4--4------------------------------| x2
A------------------2-----------------------------------|
E------------------------------------------------------|

Pre-Chorus
Guitar 1
e-----------------------------------------|
B-----------------------------------------|
G-6-6-4-44----------------------2-2222----|
D-6-6-4-44--6--7-77--2-2-4-44---2-2222----|
A-4-4-2-22--6--7-77--2-2-4-44---0-0000----|
E-----------4--5-55--0-0-2-22-------------|
[ Tab from: http://www.guitartabs.cc/tabs/0-9/3_doors_down/let_me_go_tab_ver_3.html ]
Guitar 2
e-----------------------------------------|
B-5h7-5--5~-4--5~----5h7-5~--7-9-9h10p9---|
G-----------------------------------------|
D-----------------------------------------|
A-----------------------------------------|
E-----------------------------------------|

Guitar 1 repeats
Guitar 2 (Not sure here, kind of ad lib)
e-----------------------------------------|
B-9---7~----4--5~----4---5~--7-9-9h10p9---|
G-----------------------------------------|
D-----------------------------------------|
A-----------------------------------------|
E-----------------------------------------|

Chorus
Guitar 1&2
e---------------------------------------------------|
B---------------------------------------------------|
G-----4-44-4/6-66-2-22--4/6-66-4-44--4/6-66-2-22----|
D-2-2-4-44-4/6-66-2-22--4/6-66-4-44--4/6-66-2-22----|
A-2-2-2-22-2/4-44-0-00--2/4-44-2-22--2/4-44-0-00----|
E-0-0-----------------------------------------------|

e----------------------------------------------|
B----------------------------------------------|
G-----4-44-4/6-66-2-22--4/6-66-4-44------------|
D-2-2-4-44-4/6-66-2-22--4/6-66-4-44--6-66-7----|
A-2-2-2-22-2/4-44-0-00--2/4-44-2-22--6-66-7----|
E-0-0--------------------------------4-44-5----|

Interlude
Guitar 1 plays Intro (w/ tremelo effect)
Guitar 2
e----------------------4-----------------------|
B--------------4---7---------------------------|
G---------------6---6--------------------------|
D----------------6---6-------------------------|
A----------------------------------------------|
E----------------------------------------------|

Verse
Pre-Chorus
Chorus

Bridge
Guitar 1
e----------------------------|
B----------------------------|
G-4-44-6-666-----------------|
D-4-44-6-666-6-66-7-77-------| x6
A-2-22-4-444-6-66-7-77-------|
E------------4-44-5-55-------|

Guitar 2
e-4----4---------------------|
B---5----5--5-4b---5-4b------|
G----4----4------4------4----|
D----------------------------| x6
A----------------------------|
E----------------------------|

Chorus x2
End with       instead of
e----------    ---------|
B----------    ---------|
G----------    ---------|
D------2---    ---7-----|
A------2---    ---7-----|
E------0---    ---5-----|
Comments