3 Doors Down - Landing In London Chords & Tabs

 

Landing In London Chords & Tabs

3 Doors Down Chords & Tabs

Version: 5 Type: Tab 0 ratings
1 star 2 stars 3 stars 4 stars 5 stars
comments

Landing In London Tab

   
Band- 3 Doors Down
Song- Landing In London
Album- Seventeen Days
Tuning- Standard

Intro (Main Riff)

     Am
|--------------------------------------------------------------------|
|-------1-----0------------------------------------------------------|
|-----2--2-----2-------2/4--0----------------------------------------|
|---2------2-----2---------------------------------------------------|
|--------------------------------------------------------------------|
|-0----------------------0-------------------------------------------|

     Am
|-------------------------------------------------------------------------|
|-------1-----0-----------------------------------------------------------|
|-----2--2-----2----------2--2/4------------------------------------------|
|---2------2-----2--------------------------------------------------------|
|-------------------------------------------------------------------------|
|-0-------------------------0--0------------------------------------------|

     Am
|--------------------------------------------------------------------|
|-------1-----0------------------------------------------------------|
|-----2--2-----2-------2/4--0----------------------------------------|
|---2------2-----2---------------------------------------------------|
|--------------------------------------------------------------------|
|-0----------------------0-------------------------------------------|
[ Tab from: http://www.guitartabs.cc/tabs/0-9/3_doors_down/landing_in_london_tab_ver_5.html ]
     Am
|-------------------------0--------------------------------------|
|-------1-----0---------1----------------------------------------|
|-----2--2-----2-------2-----------------------------------------|
|---2------2-----2-----2-----------------------------------------|
|-------------------------0--------------------------------------|
|-0----------------------0---------------------------------------|

Verse (Guitar One) [Riff One]

{Helpful Hint: As you start hammering-on the Em notes, begin to form the chord itself (022000) }

     G                                     A5                           Em
|--------------------------------------------------------------------------------|
|-------0--------------------------------0------0--------------------------------|
|-----0--0----------------------------2--2------2-----------------0--------------|
|---0--------------------------------2------2------2---------0h2---2-------------|
|------------------2b--0----------0----------------------0h2---------------------|
|-3----------3-------------------------------------------------------------------|

     A5                 Em
|---------------------------------------|
|------0--------------------------------|
|----2--2------------------0------------|
|--2------2----------0h2---2------------|
|-0---------------0h2-------------------|
|---------------------------------------|

repeat that whole thing if needed

Chorus (strumming)

(Em)	C	Am	Em	(Play last part of Riff One)	C	D (let ring)

Verse

Bridge (same chords as chorus, after D, throw in an Em)

Chorus

Interlude (layered behind solo)

Em	C	Am	Em	Em	C	D	Em

Em	C	Am	Em	Em	C	D

Bridge

Chorus

end on D.
Comments