3 Doors Down - Landing In London Chords & Tabs

 

Landing In London Chords & Tabs

3 Doors Down Chords & Tabs

Version: 4 Type: Tab 0 ratings
1 star 2 stars 3 stars 4 stars 5 stars
comments

Landing In London Tab

   
Artist: 3 Doors Down
Song: Landing in London
Album: Seventeen Days
Transcribed By: Gedeone (angelgedeone@hotmail.com)

A simplified version of an easy song; I'm really not sure about the solo, but that's all 
could get from the song, sorry.
Enjoy!

>>Chords

 	Em	C     Dsus2

E|-------0-------0-------0---------|
B|-------0-------1-------3---------|
G|-------0-------0-------2---------|
D|-------2-------2-------0---------|
A|-------2-------3-------0---------|
E|-------0-------0-------0---------|


>>Intro :

E|----------------------------------------------------------------------------|
B|-------0-1-0---0-------0-1-0-----0------0-1-0---0----------0----------------|
G|-----0-------2--0----0-------2-2------0-------2---0------0------------------|
D|-------------------------------------------------------2--------------------|
A|----------------------------------------------------------------------------|
E|---0---------------0----------------0----------------0----------------------|


>>Verse :

		      C	  Dsus2				      Em
I woke up today in London, 	As the plane was touching down
				C	Dsus2				Em
and all I could think about was Monday, 	And maybe I'll be back around
 			    C	  Dsus2				 Em
If this keeps me away much longer,	I don't know what I will do
			       C         Dsus2			Em
You've got to understand its a hard life,	That I'm going through

		            C	      Dsus2			       Em
And when the night falls in around me,	    I don't think ill make it through
			         C     Dsus2			       Em
I'll use your light to guide the way,	    Cause all I think about is you


>>Now play the intro:

>>For the rest of the song the chords remain the same as before.
[ Tab from: http://www.guitartabs.cc/tabs/0-9/3_doors_down/landing_in_london_tab_ver_4.html ]
Well L.A is getting kinda crazy,	And New York is getting kinda cold
I keep my head from getting lazy,       I just cant wait to get back home
And all these days I spend away,	I'll make up for this I swear
I need your love to hold me up,         When its all too much to bear

And when the night falls in around me,	I don't think ill make it through
I'll use your light to guide the way,   Cause all I think about is you


>>Solo:

E|--------------|-----------------------|-------------------------------------|
B|--------------|-----------8-10--10/12-|------8-10--12-13-12---10-12/13\12---|
G|--------------|----7-9-11-------------|-9-11----------------9---------------|
D|----------7-9-|-10--------------------|-------------------------------------|
A|---7-9-10-----|-----------------------|-------------------------------------|
E|--------------|-----------------------|-------------------------------------|

E|---------------12-12-12-12-|-12-10-8-10-8-7-8-7-5-7-5-0---------------------|
B|-----10--12/13-------------|------------------------------------------------|
G|---9-----------------------|------------------------------------------------|
D|---------------------------|------------------------------------------------|
A|---------------------------|------------------------------------------------|
E|---------------------------|------------------------------------------------|


And all these days I spend away,	I'll make up for this I swear
I need your love to hold me up,         When its all too much to bear

When the night falls in around me,      I don't think ill make it through
I'll use your light to guide the way,   Cause all I think about is you.


>Outro:

E|------------------------------------------------------------------0---------|
B|-------0-1-0---0-------0-1-0-----0------0-1-0---0----------0------0---------|
G|-----0-------2--0----0-------2-2------0-------2---0------0---0----0---------|
D|-------------------------------------------------------2-------2--2---------|
A|------------------------------------------------------------------2---------|
E|---0---------------0----------------0----------------0------------x---------|
Comments