3 Doors Down - Kryptonite Chords & Tabs

 

Kryptonite Chords & Tabs

3 Doors Down Chords & Tabs

Version: 6 Type: Tab 0 ratings
1 star 2 stars 3 stars 4 stars 5 stars
comments

Kryptonite Tab

   
transcribed by: Andrew M. Dunnington
intro/verse  
1 + 2 + 3 + 4 +]
e----------------]
b-------3--------]
g---- 4-----4---0]
d---4---------4--]
a-2--------------]
e----------------]

  1 + 2 + 3 + 4 +]
e----------------]
b---------------0]
g-------0-----2--]
d-----0-----2----]
a---2-----0------]
e-3--------------]

chorus
  1 + 2 + 3 + 4 +]
e----------------]
b----------------]
g----------------]
d-9---9---9---9--]
a-9---9---9---9--]
e-7---7---7---7--]


  1 + 2 + 3 + 4 +]
e----------------]
b----------------]
g----------------]
d-5-5-5-5-7-7-7-7]
a-5-5-5-5-7-7-7-7]
e-3-3-3-3-5-5-5-5]
[ Tab from: http://www.guitartabs.cc/tabs/0-9/3_doors_down/kryptonite_tab_ver_6.html ]
solo
  1 + 2 + 3 + 4 +
e-----------------]
b-----------------]
g-----------------]
d-----------------]
a-----------------]
e-7---9-10--9-10-9]
  
  1 + 2 + 3 + 4 +]
e----------------]
b----------------]
g----------------]
d----------------]
a-7---5-4---5-4--]
e---------------5]

  1 + 2 + 3 + 4 +]
e----------------]
b----------------]
g----------------]
d----------------]
a----------------]
e-7---5-7---5-7-5]

  1 + 2 + 3 + 4 +]
e----------------]
b----------------]
g----------------]
d-5-5-5-5-5-5-5-5]               
a-5-5-5-5-5-5-5-5]            
e-3-3-3-3-3-3-3-3]               

  1 + 2 + 3 + 4 +]
e----------------]
b----------------]
g----------------]
d-7-7-7-7-7-7-7-7]
a-7-7-7-7-7-7-7-7]
e-5-5-5-5-5-5-5-5]

  1 + 2 + 3 + 4 +]
e----------------]
b----------------]
g----------------]
d-9v-------------]
a-9v-------------]
e-7v-------------]

Any corrections or comments
just email me at 
fender_bender_rocker@yahoo.com.
eeennnjjjoooyyy!!!
Comments