3 Doors Down - Its Not Me Chords & Tabs

 

Its Not Me Chords & Tabs

3 Doors Down Chords & Tabs

Version: 1 Type: Tab 0 ratings
1 star 2 stars 3 stars 4 stars 5 stars
comments

Its Not Me Tab

   
This is from the Another 700 Miles cd from their live tour.

This is most of the song, some of the picking parts are left out but they are just
done by picking the chords Em and G

Standard tuning

Em 022000
G  320033


emphasize notes in parenthesis
Intro thing: also used in the chorus with a wah pedal
        Em       G           Em       G
e--------------------|--------------------------------------------
B--------------------|--------------------------3-----------------
G-----------0~~------|-----------0~~--------------0---------------
D--------2-----------|--------2--------------0--------------------
A------2-------------|------2--------------2----------------------
E-(0)---------3~~----|-(0)----------3~~---------------------------
[ Tab from: http://www.guitartabs.cc/tabs/0-9/3_doors_down/its_not_me_tab.html ]
Riff thing
   E        G             A     B       
E-----------------------------------------------------------------
B-----------------------------------------------------------------
G-----------------------------------------------------------------
D--2-2-x--5--5--5-5-x-x--7-7-x--9--9--9-x--7~~--------------------
A--2-2-x--5--5--5-5-x-x--7-7-x--9--9--9-x--7~~--------------------
E--0-0-x--3--3--3-3-x-x--5-5-x--7--7--7-x--5~~--------------------

E-----------------------------------------------------------------
B-----------------------------------------------------------------
G-----------------------------------------------------------------
D--2-2-x--5--5--5-5-x-x--7-7-x--9--9--9-x--7\5--------------------
A--2-2-x--5--5--5-5-x-x--7-7-x--9--9--9-x--7\5--------------------
E--0-0-x--3--3--3-3-x-x--5-5-x--7--7--7-x--5\3--------------------


Please post any corrections you have because I'm still trying to perfect the song myself, thanks
Comments