3 Doors Down - I Feel You Chords & Tabs

 

I Feel You Chords & Tabs

3 Doors Down Chords & Tabs

Version: 5 Type: Tab 0 ratings
1 star 2 stars 3 stars 4 stars 5 stars
comments

I Feel You Tab

   
Band- 3 Doors Down
Song- I Feel You

-----------------|-----------------|-----------------|-----------------|------|
-----------------|-----------------|-----------------|-----------------|------|
---------0-------|-------------0---|---------0-------|-------------2---|------|
-----2-----0---0-|-----0---------0-|-----2-----0---0-|-----0---------0-|------|
---2---2---------|---4-------2-----|---2---2---------|---4-------2-----|---2--|
-0---------------|-5-------3-------|-0---------------|-5-------3-------|-0----|
 Intro:

-------------|-----------------|-----------------|------------------|---------|
-------------|-----------------|-----------------|------------------|---------|
-----0-------|-------------0---|---------0-------|---------0-2b-2-0-|---------|
-2-----0---0-|-----0---------0-|-----2-----0---0-|-----0------------|-----2---|
---2---------|---4-------2-----|---2---2---------|---4--------------|---2---2-|
-------------|-5-------3-------|-0---------------|-5----------------|-0-------|


----------|-----------------|-----------------|-----------------|-------------|
----------|-----------------|-----------------|-----------------|-------------|
--0-------|-------------0---|---------0-------|-------------2---|---------0---|
----0---0-|-----0---------0-|-----2-----0---0-|-----0---------0-|-----2-----0-|
----------|---4-------2-----|---2---2---------|---4-------2-----|---2---2-----|
----------|-5-------3-------|-0---------------|-5-------3-------|-0-----------|


------|-----------------|-----------------|------------------|----------------|
------|-----------------|-----------------|------------------|----------------|
------|-------------0---|---------0-------|---------0-2b-2---|----------------|
----0-|-----0---------0-|-----2-----0---0-|-----0------------|----------------|
------|---4-------2-----|---2---2---------|---4--------------|----------------|
------|-5-------3-------|-0---------------|-5----------------|----------------|


-----------------|-----------------|-----------------|-----------------|------|
-----------------|-----------------|-----------------|-----------------|------|
---------0-------|-------------0---|---------0-------|-------------2---|------|
-----2-----0---0-|-----0---------0-|-----2-----0---0-|-----0---------0-|------|
---2---2---------|---4-------2-----|---2---2---------|---4-------2-----|---2--|
-0---------------|-5-------3-------|-0---------------|-5-------3-------|-0----|
 Verse 1: (00:25)

-------------|-----------------|-----------------|------------------|-0-------|
-------------|-----------------|-----------------|------------------|-2-------|
-----0-------|-------------0---|---------0-------|---------0-2b-2---|-2-------|
-2-----0---0-|-----0---------0-|-----2-----0---0-|-----0------------|-2-------|
---2---------|---4-------2-----|---2---2---------|---4--------------|-0-------|
-------------|-5-------3-------|-0---------------|-5----------------|---------|
                                                                (2x)  Bridge:

------0---|-----------------|-0-----------3---|-----------------|-0-----------|
------0---|-----------------|-2-----------3---|-----------------|-2-----------|
------0---|-----------------|-2-----------4---|-----------------|-2-----------|
------2---|---------0-------|-2-----------5---|-----------------|-2-----------|
------2---|-----0h2---------|-0-----------5---|-----------------|-0-----------|
------0---|-----------------|-------------3---|-----------------|-------------|
 (00:51)
[ Tab from: http://www.guitartabs.cc/tabs/0-9/3_doors_down/i_feel_you_tab_ver_5.html ]
--0---|-----------------|-3-----3-3---3---|---3-----3-------|-5-----5-5---5---|
--0---|-----------------|-3-----3-3---3---|---3-----3-------|-5-----5-5---5---|
--0---|-----------------|-4-----4-4---5---|---5-----4-------|-5-----5-5---5---|
--2---|---------0-------|-5-----5-5---5---|---5-----5-------|-7-----7-7---7---|
--2---|-----0h2---------|-5-----5-5---5---|---5-----5-------|-7-----7-7---7---|
--0---|-----------------|-3-----3-3---3---|---3-----3-------|-5-----5-5---5---|


--|---5-------------|---------------------------------------------------------|
--|---5-------------|---------------------------------------------------------|
--|---5-------------|---------------------------------------------------------|
--|---7-----7h8p7---|---------------------------------------------------------|
--|---7----------10-|---------------------------------------------------------|
--|---5-------------|---------------------------------------------------------|


Chorus: |em| |G| |am| |am G| |em| |G| |am| |G| |em| |G| |am| |am G| |em| |G|
        |am|


-----------------|-----------------|-----------------|-----------------|------|
-----------------|-----------------|-----------------|-----------------|------|
---------0-------|-------------0---|---------0-------|-------------2---|------|
-----2-----0---0-|-----0---------0-|-----2-----0---0-|-----0---------0-|------|
---2---2---------|---4-------2-----|---2---2---------|---4-------2-----|---2--|
-0---------------|-5-------3-------|-0---------------|-5-------3-------|-0----|
 Intro to verse 2: (01:32)

-------------|-----------------|-----------------|------------------|---------|
-------------|-----------------|-----------------|------------------|---------|
-----0-------|-------------0---|---------0-------|---------0-2b-2---|---------|
-2-----0---0-|-----0---------0-|-----2-----0---0-|-----0------------|---------|
---2---------|---4-------2-----|---2---2---------|---4--------------|---------|
-------------|-5-------3-------|-0---------------|-5----------------|---------|


Verse 2: (01:44) Same as verse 1 (2x)


Bridge: (02:09)


Chorus: (02:25)


------------------|-----------------|------------------|------------------|---|
------------------|-----------------|------------------|------------------|---|
------------------|-----------------|------------------|------------------|---|
------------------|---------5-6-7v--|------------------|---------9-7----7-|---|
-7-7-7-7-10-7-7-7-|---7-7-7---------|-7-7-7-7-10-7-7-7-|---7-7-7-7-7-10-7-|---|
-0-0-0-0-0--0-0-0-|---0-0-0---------|-0-0-0-0-0--0-0-0-|---0-0-0-0-0-0--0-|---|
 Solo: (02:50)                                                        (4x)


Chorus:


-----------------|-----------------|-----------------|-----------------|------|
-----------------|-----------------|-----------------|-----------------|------|
---------0-------|-------------0---|---------0-------|-------------2---|------|
-----2-----0---0-|-----0---------0-|-----2-----0---0-|-----0---------0-|------|
---2---2---------|---4-------2-----|---2---2---------|---4-------2-----|---2--|
-0---------------|-5-------3-------|-0---------------|-5-------3-------|-0----|
 Outro:

-------------|-----------------|-----------------|------------------|-0-------|
-------------|-----------------|-----------------|------------------|--0------|
-----0-------|-------------0---|---------0-------|---------0-2b-2-0-|---0-----|
-2-----0---0-|-----0---------0-|-----2-----0---0-|-----0------------|----2----|
---2---------|---4-------2-----|---2---2---------|---4--------------|-----2---|
-------------|-5-------3-------|-0---------------|-5----------------|------0--|


---------------|--------------------------------------------------------------|
---------------|--------------------------------------------------------------|
---------------|--------------------------------------------------------------|
---------------|--------------------------------------------------------------|
---------------|--------------------------------------------------------------|
---------------|--------------------------------------------------------------|
Comments