3 Doors Down - I Feel You Chords & Tabs

 

I Feel You Chords & Tabs

3 Doors Down Chords & Tabs

Version: 4 Type: Tab 0 ratings
1 star 2 stars 3 stars 4 stars 5 stars
comments

I Feel You Tab

   
3 Doors Down
I Feel You
Tabbed by: Justin Driggers
Standard Tuning


Intro/Verse
|----------------------------------------------------------------------------|
|----------------------------------------------------------------------------|
|---------0---------------------------------0--------------------------------|
|-----2-----2----------0--------5p0-----2-----2----------0-------7p0---------|
|---2---2-----2------5---5----5-------2---2-----2------5---5---5-------------|
|-0-------------0--5--------3-------0-------------0--5-------3---------------|
[ Tab from: http://www.guitartabs.cc/tabs/0-9/3_doors_down/i_feel_you_tab_ver_4.html ]
|----------------------------------------------------------------------------|
|----------------------------------------------------------------------------|
|---------0---------------------------------0--------------------------------|
|-----2-----2----------0--------5p0-----2-----2----------5--5-7^5------------|
|---2---2-----2------5---5----5-------2---2-----2------5---------------------|
|-0-------------0--5--------3-------0-------------0--5-----------------------|


Pre-Chorus

|--------------------------------------------|
|--------------------------------------------|
|-2----------2----2-----------2-2h3p0--------|
|-2-2-----0--2-5--2-2-----0-5-2--------------|
|-0-2-0h2----0-5--0-2-0h2---5-0--------------|
|---0----------3----0-------3----------------|

Chorus

E G A A/A#\G    (3-note power chords)
E G A A
E G A A/A#\G
E G A

Verse 2

Pre-Chorus

Chorus

Bridge

|-------------------------|
|-------------------------|
|-------------------------|
|-2-----------2-----------|
|-2-----------2-----------|
|-0---3h4h5^--0--3h5p3p0--|
  ^           ^
 P.M. with Wah-Wah

Chorus

Intro/Verse x1
Comments