3 Doors Down - I Feel You Chords & Tabs

 

I Feel You Chords & Tabs

3 Doors Down Chords & Tabs

Version: 3 Type: Tab 0 ratings
1 star 2 stars 3 stars 4 stars 5 stars
comments

I Feel You Tab

   
-------------------------------------------------------------------------------
			     I Feel You - 3 Doors Down
-------------------------------------------------------------------------------

Tabbed by: Trey Johnson
Email: dudeinwrens@hotmail.com

Tuning: Standard

e|---------------------------------------------------------------------------|
B|---------------------------------------------------------------------------|
G|------------0--------------------0-----------------------------------------|
D|------2-------0-0-------0----------0---------------------------------------|
A|----2---(2)-----------4-------2--------------------------------------------|
E|--0-----------------5-------3----------------------------------------------|

e|---------------------------------------------------------------------------|
B|---------------------------------------------------------------------------|
G|-------------0---------------------2---------------------------------------|
D|------2--------0-0-------0-----------0-------------------------------------|
A|----2---(2)------------4--------2------------------------------------------|
E|--0------------------5--------3--------------------------------------------|
[ Tab from: http://www.guitartabs.cc/tabs/0-9/3_doors_down/i_feel_you_tab_ver_3.html ]
e|---------------------------------------------------------------------------|
B|---------------------------------------------------------------------------|
G|------------0---------------------0----------------------------------------|
D|------2-------0-0------0-------0----0--------------------------------------|
A|----2---(2)----------4-------2---------------------------------------------|
E|--0----------------5-------3-----------------------------------------------|

e|---------------------------------------------------------------------------|
B|---------------------------------------------------------------------------|
G|------------0--------------------2b-2b-2-----------------------------------|
D|------2-------0-0------0-----------------0---------------------------------|
A|----2---(2)----------4-------2---------------------------------------------|
E|--0----------------5-------3-----------------------------------------------|
    
   Well...here it is..I know its not perfect so if ya figure out whats wrong send it to me .

| /  slide up
| \  slide down
| h  hammer-on
| p  pull-off
| ~  vibrato
| +  harmonic
| x  Mute note

===============================================================================
Comments