3 Doors Down - Here Without You Chords & Tabs

 

Here Without You Chords & Tabs

3 Doors Down Chords & Tabs

Version: 8 Type: Tab 1 rating
1 star 2 stars 3 stars 4 stars 5 stars
comments

Here Without You Tab

   
Intro 
e|-----------------------------------------------------------------------| 
B|---------1------0------0----1--------------------------------0---------| 
G|-------2----2------2-----2----2----------------------------0---0-------| 
D|-----2--------2------2---------------------3-------------0-------0-----| 
A|-0------------------------------0------0h3----3-0----------------------| 
E|----------------------------------3--1------------3----------------3---| 

Verse 1 (0:08) 
e|-----------------------------------------------------------------------| 
B|----------1-----0------0----1-----------------0-----1------0----1/3----| 
G|-------2----2------2-----2----2------------0----0------0-----0---------| 
D|-----2--------2------2----------2--------0--------0------0-------------| 
A|---0------------------------------0------------------------------------| 
E|-------------------------------------3---------------------------------| 

e|-----------------------------------------------------------------------| 
B|---------1------0------0----1--------------------------------0---------| 
G|-------2----2------2-----2----2----------------------------0---0-------| 
D|-----2--------2------2---------------------3-------------0-------0-----| 
A|-0------------------------------0------0h3----3-0----------------------| 
E|----------------------------------3--1------------3----------------3---| 

e|-----------------------------------------------------------------------| 
B|----------1-----0------0----1-----------------0-----1------0----1/3----| 
G|-------2----2------2-----2----2------------0----0------0-----0---------| 
D|-----2--------2------2----------2--------0--------0------0-------------| 
A|---0------------------------------0------------------------------------| 
E|-------------------------------------3---------------------------------| 

e|-----------------------------------------------------------------------| 
B|---------1------0------0----1--------------------------------0---------| 
G|-------2----2------2-----2----2----------------------------0---0-------| 
D|-----2--------2------2---------------------3-------------0-------0-----| 
A|-0------------------------------0------0h3----3-0----------------------| 
E|----------------------------------3--1------------3----------------3---| 

e|-----------------------------------------------------------------------| 
B|----------1-----0------0----1-----------------0-----1------0----1/3----| 
G|-------2----2------2-----2----2------------0----0------0-----0---------| 
D|-----2--------2------2----------2--------0--------0------0-------------| 
A|---0------------------------------0------------------------------------| 
E|-------------------------------------3---------------------------------| 

e|-----------------------------------------------------------------------| 
B|---------1------0------0----1--------------------------------0---------| 
G|-------2----2------2-----2----2----------------------------0---0-------| 
D|-----2--------2------2---------------------3-------------0-------0-----| 
A|-0------------------------------0------0h3----3-0----------------------| 
E|----------------------------------3--1------------3----------------3---| 



Chorus (0:48) 
e|----------------0-----------1p0---------------------3------1----0------| 
B|----------3----------1----------3-1-----------0--------0------------3--| 
G|-------0----0----------0-------------------0----0--------0---0----0---0| 
D|-----2--------2----------2---------------0--------0--------------------| 
A|-3---------------------------------------------------------------------| 
E|-------------------------------------3---------------------------------| 

e|-----------------------------------------------------------------------| 
B|----------1-----3----1------3p1---------------------------------0------| 
G|-------2----2------------2------2--------------------------0------0----| 
D|-----2--------2-------------------2--------3-------------0---0------0--| 
A|-0-------------------------------------0h3------3----------------------| 
E|-------------------------------------1------------3-------------------3| 

e|----------------0-----------1p0---------------------3------1----0------| 
B|----------3----------1----------3-1-----------0--------0------------3--| 
G|-------0----0----------0-------------------0----0--------0---0----0---0| 
D|-----2--------2----------2---------------0--------0--------------------| 
A|-3---------------------------------------------------------------------| 
E|-------------------------------------3---------------------------------| 

e|-----------------------------------------------------------------------| 
B|----------1-----3----1------3p1---------------------------------0------| 
G|-------2----2------------2------2--------------------------0------0----| 
D|-----2--------2-------------------2--------3-------------0---0------0--| 
A|-0-------------------------------------0h3------3----------------------| 
E|-------------------------------------1------------3-------------------3| 


Verse 2 (1:15) 
e|-----------------------------------------------------------------------| 
B|----------1-----0------0----1-----------------0-----1------0----1/3----| 
G|-------2----2------2-----2----2------------0----0------0-----0---------| 
D|-----2--------2------2----------2--------0--------0------0-------------| 
A|---0------------------------------0------------------------------------| 
E|-------------------------------------3---------------------------------| 

e|-----------------------------------------------------------------------| 
B|---------1------0------0----1--------------------------------0---------| 
G|-------2----2------2-----2----2----------------------------0---0-------| 
D|-----2--------2------2---------------------3-------------0-------0-----| 
A|-0------------------------------0------0h3----3-0----------------------| 
E|----------------------------------3--1------------3----------------3---| 

e|-----------------------------------------------------------------------| 
B|----------1-----0------0----1-----------------0-----1------0----1/3----| 
G|-------2----2------2-----2----2------------0----0------0-----0---------| 
D|-----2--------2------2----------2--------0--------0------0-------------| 
A|---0------------------------------0------------------------------------| 
E|-------------------------------------3---------------------------------| 
[ Tab from: http://www.guitartabs.cc/tabs/0-9/3_doors_down/here_without_you_tab_ver_8.html ]
e|-----------------------------------------------------------------------| 
B|---------1------0------0----1--------------------------------0---------| 
G|-------2----2------2-----2----2----------------------------0---0-------| 
D|-----2--------2------2---------------------3-------------0-------0-----| 
A|-0------------------------------0------0h3----3-0----------------------| 
E|----------------------------------3--1------------3----------------3---| 

e|-----------------------------------------------------------------------| 
B|----------1-----0------0----1-----------------0-----1------0----1/3----| 
G|-------2----2------2-----2----2------------0----0------0-----0---------| 
D|-----2--------2------2----------2--------0--------0------0-------------| 
A|---0------------------------------0------------------------------------| 
E|-------------------------------------3---------------------------------| 

e|-----------------------------------------------------------------------| 
B|---------1------0------0----1--------------------------------0---------| 
G|-------2----2------2-----2----2----------------------------0---0-------| 
D|-----2--------2------2---------------------3-------------0-------0-----| 
A|-0------------------------------0------0h3----3-0----------------------| 
E|----------------------------------3--1------------3----------------3---| 



Chorus (1:55) 
e|----------------0-----------1p0---------------------3------1----0------| 
B|----------3----------1----------3-1-----------0--------0------------3--| 
G|-------0----0----------0-------------------0----0--------0---0----0---0| 
D|-----2--------2----------2---------------0--------0--------------------| 
A|-3---------------------------------------------------------------------| 
E|-------------------------------------3---------------------------------| 

e|-----------------------------------------------------------------------| 
B|----------1-----3----1------3p1---------------------------------0------| 
G|-------2----2------------2------2--------------------------0------0----| 
D|-----2--------2-------------------2--------3-------------0---0------0--| 
A|-0-------------------------------------0h3------3----------------------| 
E|-------------------------------------1------------3-------------------3| 

e|----------------0-----------1p0---------------------3------1----0------| 
B|----------3----------1----------3-1-----------0--------0------------3--| 
G|-------0----0----------0-------------------0----0--------0---0----0---0| 
D|-----2--------2----------2---------------0--------0--------------------| 
A|-3---------------------------------------------------------------------| 
E|-------------------------------------3---------------------------------| 

e|-----------------------------------------------------------------------| 
B|----------1-----3----1------3p1---------------------------------0------| 
G|-------2----2------------2------2--------------------------0------0----| 
D|-----2--------2-------------------2--------3-------------0---0------0--| 
A|-0-------------------------------------0h3------3----------------------| 
E|-------------------------------------1------------3-------------------3| 


Interlude (2:21 
am C G F am C G F F (Bar CordS) 

e|----------------0-----------1p0---------------------3------1----0------| 
B|----------3----------1----------3-1-----------0--------0------------3--| 
G|-------0----0----------0-------------------0----0--------0---0----0---0| 
D|-----2--------2----------2---------------0--------0--------------------| 
A|-3---------------------------------------------------------------------| 
E|-------------------------------------3---------------------------------| 

e|-----------------------------------------------------------------------| 
B|----------1-----3----1------3p1---------------------------------0------| 
G|-------2----2------------2------2--------------------------0------0----| 
D|-----2--------2-------------------2--------3-------------0---0------0--| 
A|-0-------------------------------------0h3------3----------------------| 
E|-------------------------------------1------------3-------------------3| 

Chorus (3:05) 
e|----------------0-----------1p0---------------------3------1----0------| 
B|----------3----------1----------3-1-----------0--------0------------3--| 
G|-------0----0----------0-------------------0----0--------0---0----0---0| 
D|-----2--------2----------2---------------0--------0--------------------| 
A|-3---------------------------------------------------------------------| 
E|-------------------------------------3---------------------------------| 

e|-----------------------------------------------------------------------| 
B|----------1-----3----1------3p1---------------------------------0------| 
G|-------2----2------------2------2--------------------------0------0----| 
D|-----2--------2-------------------2--------3-------------0---0------0--| 
A|-0-------------------------------------0h3------3----------------------| 
E|-------------------------------------1------------3-------------------3| 

e|----------------0-----------1p0---------------------3------1----0------| 
B|----------3----------1----------3-1-----------0--------0------------3--| 
G|-------0----0----------0-------------------0----0--------0---0----0---0| 
D|-----2--------2----------2---------------0--------0--------------------| 
A|-3---------------------------------------------------------------------| 
E|-------------------------------------3---------------------------------| 

e|-----------------------------------------------------------------------| 
B|----------1-----3----1------3p1---------------------------------0------| 
G|-------2----2------------2------2--------------------------0------0----| 
D|-----2--------2-------------------2--------3-------------0---0------0--| 
A|-0-------------------------------------0h3------3----------------------| 
E|-------------------------------------1------------3-------------------3| 

e|----------------0-----------1p0---------------------3------1----0------| 
B|----------3----------1----------3-1-----------0--------0------------3--| 
G|-------0----0----------0-------------------0----0--------0---0----0---0| 
D|-----2--------2----------2---------------0--------0--------------------| 
A|-3---------------------------------------------------------------------| 
E|-------------------------------------3---------------------------------| 

e|-----------------------------------------------------------------------| 
B|----------1-----3----1------3p1---------------------------------0------| 
G|-------2----2------------2------2--------------------------0------0----| 
D|-----2--------2-------------------2--------3-------------0---0------0--| 
A|-0-------------------------------------0h3------3----------------------| 
E|-------------------------------------1------------3-------------------3| 


Outro (3:44) 
e|---------| 
B|---------| 
G|-2-------| 
D|-2-------| 
A|-0-------| 
E|---------|
Comments