3 Doors Down - Here Without You Chords & Tabs

 

Here Without You Chords & Tabs

3 Doors Down Chords & Tabs

Version: 2 Type: Bass Tab 0 ratings
1 star 2 stars 3 stars 4 stars 5 stars
comments

Here Without You Bass Tab

   
By: bassist.dude4eva

This song is played with capo on first fret for guitar, so it is already moved up a
fret for you. This is all on the E string only as it produces a nicer lower sound.
Enjoy 
(Original Version)

(Intro)
         Am        G        F          G
    G -----------------------------------------------------|
    D -----------------------------------------------------|
    A -----------------------------------------------------|
    E ----6--------4--------2----------4-------------------|
   
(Verse)
                   Am             G             Am
    G ------------------------------------------------------|
    D ------------------------------------------------------|
    A ------------------------------------------------------|
    E --------------6-------------4-------------6-----------|
       A hundred days...    Last time...    Pretty Face

                Am        G          F            G
    G ------------------------------------------------------|
    D ------------------------------------------------------|
    A ------------------------------------------------------|
    E ----------6---------4-----------2-----------4---------|
[ Tab from: http://www.guitartabs.cc/tabs/0-9/3_doors_down/here_without_you_btab_ver_2.html ]
                    Am             G             Am
    G ------------------------------------------------------|
    D ------------------------------------------------------|
    A ------------------------------------------------------|
    E --------------6-------------4-------------6-----------|
        A thousand lies...     And i dont...    The same...
       
    
                Am        G          F            G
    G ------------------------------------------------------|
    D ------------------------------------------------------|
    A ------------------------------------------------------|
    E ----------6---------4-----------2-----------4---------|(Repeat)



(Chorus)
             C                    G              Am
    G ------------------------------------------------------|
    D ------------------------------------------------------|
    A -------4----------------------------------------------|
    E -----------------------------4-------------------6----|
     Im here without you...    But youre still...     mind...

            Am               F              G          C
    G ------------------------------------------------------|
    D ------------------------------------------------------|
    A -------------------------------------------------4----|
    E -------6----------------2-------------4---------------|
     I think about you...  And I...      'Bout You    Time    (Repeat)


(Bridge)

         Am               C               G             F
    G ------------------------------------------------------|
    D ------------------------------------------------------|
    A --------------------4---------------------------------|
    E ----6-------------------------------4-------------2---|
   Everything i know...                  go...       Take...(Repeat)  


Yup guys this is it.Beautiful song...

Tabbed by: bassist.dude4eva
Comments