3 Doors Down - Here With Out You Chords & Tabs

 

Here With Out You Chords & Tabs

3 Doors Down Chords & Tabs

Version: 1 Type: Bass Tab 0 ratings
1 star 2 stars 3 stars 4 stars 5 stars
comments

Here With Out You Bass Tab

Here With Out You 
3 Doors Down
Tabbed By Steven87
Standard Tuning


Intro
-------------------------------------
-------------------------------------
--0---------------------------------
-----1--3---------------------------

Verse1
------------------------------------
------------------------------------
0-----0--------0-----0-----0--------
---3-----1--3-----3-----3-----1--3--
[ Tab from: http://www.guitartabs.cc/tabs/0-9/3_doors_down/here_with_out_you_btab.html ]
Chorus
---------------------------------------------
---------------------------------------------
3-----0--------3-----0--------0-----0--------
---3-----1--3-----3-----1--3-----3-----1--3--

Verse 2
------------------------------
------------------------------
0-----0--------0-----0--------
---3-----1--3-----3-----1--3--

Repeat Chorus

Verse 3
0--3--------0--3--------3-----0--------
------3--1--------3--1-----3-----1--3--

Repeat Chorus
Comments