3 Doors Down - Going Down In Flames Chords & Tabs

 

Going Down In Flames Chords & Tabs

3 Doors Down Chords & Tabs

Version: 7 Type: Tab 0 ratings
1 star 2 stars 3 stars 4 stars 5 stars
comments

Going Down In Flames Tab

   
  
--------------------------------------------------------------------------
			Going Down In Flames - 3 Doors Down
--------------------------------------------------------------------------
Tabbed by: sonofguido
Email: sonofguido@hotmail.com

Tuning: Standard

/=slide
r=ring

Intro:
    E  F# G  C  F# G        E  F# G  C  G  F#
e|------------------------------------------------------|
B|------------------------------------------------------|
G|-----------5-----------------------5------------------|
D|--2--4--5--5--4--5--------2--4--5--5--5--4------------|
A|--2--4--5--3--4--5--------2--4--5--3--5--4------------|
E|--0--2--5-----2--3--------0--2--3-----3--2------------|

(Intro Continued)
    E  F# G  C  F# G        E  F# G  C  G  F#
e|------------------------------------------------------|
B|------------------------------------------------------|
G|-----------5-----------------------5--4--2------------|
D|--2--4--5--5--4--5--------2--4--5--5--4--2------------|
A|--2--4--5--3--4--5--------2--4--5--3--2--0------------|
E|--0--2--5-----2--3--------0--2--3---------------------|

Verse:
     B     C     G     D
E|--------------------------------|
B|--------------------------------|  
G|--4--4--5--5--------7--7--------|   2X
D|--4--4--5--5--5--5--7--7--------|
A|--2--2--3--3--5--5--5--5--------|
E|--------------3--3--------------|

Pre-chorus: Strum each chord from Verse once starting at "Cacth me when 
            I Fall..."  2X
[ Tab from: http://www.guitartabs.cc/tabs/0-9/3_doors_down/going_down_in_flames_tab_ver_7.html ]
    E        F#  F#/G   C                       G        D
e|----------------------------------------------------------|
B|----------------------------------------------------------|
G|----------------------5r-------------------------------7--|
D|--2------4---4--4/5---5r----------------------5r-------7--|    2X
A|--2------4---4--4/5---3r----------------------5r-------5--|
E|--0------2---2--2/5---------------------------3r----------|
  "I'm going down  in  flames, I'm falling into this... Again!"  

Play Again the, 
  Intro
  Verse 
  Pre-chorus
  Chorus

             
    B    C      G      D
e|---------------------------------------------------------|
B|---------------------------------Listen to the song------|
G|-4--4--5--5---------7--7-------for when to strum chords--|  2X
D|-4--4--5--5--5--5---7--7---------------------------------|
A|-2--2--3--3--5--5---5--5---------------------------------|
E|-------------3--3----------------------------------------|
   "Now, I'm all the way down here I'm falling."

     B    G     E     G/B
e|---------------------------------------------------------|
B|---------------------------------Listen to the song------|
G|-4------------------5/4--------for when to strum chords--|  4X
D|-4------5-----2-----5/4----------------------------------|
A|-2------5-----2-----3/2----------------------------------|
E|--------3-----0------------------------------------------|
   "Again..."  (song goes lot slower)

Play Chorus Again!
then,
     B    C     G      D
e|---------------------------------------------------------|
B|---------------------------------------------------------|
G|-4--4--5--5---------7--7---------------------------------|  3X
D|-4--4--5--5--5--5---7--7---------------------------------|
A|-2--2--3--3--5--5---5--5---------------------------------|
E|-------------3--3----------------------------------------|
   "Now, I'm all the way down here I'm falling."

Ending song on E 

               
That's it.  Hope you enjoy!  Comments or corrections, feel free to email!  SOG
Comments