3 Doors Down - Going Down In Flames Chords & Tabs

 

3 Doors Down Chords & Tabs

Version: 1 Type: Tab 0 ratings
1 star 2 stars 3 stars 4 stars 5 stars
comments

Going Down In Flames Tab

#-----------------------------------------------------------------------------#
#-- File created with Instab - http://www.pconline.com/~smcarey/instab.html --#
#-----------------------------------------------------------------------------#

Author/Artist: Three Doors Down
Title: Going Down in Flames
Album: Away From the Sun
Transcribed by: Brad Davis
Email: polokid91@hotmail.com

this is a very easy and fun song to play. i dont have
the 'solo' transcribed so if anyone does please e-mail
it to me. I know these new 3 doors down songs are 
in high demand and i also figured out 'sarah yellin'
and 'when im gone' so ill get those transcribed as
soon as i can so keep checking back

------------------------------------------------------------------------------
----------------3-------------------------------------------------------------
--4----6-6--7---2----6-6--7--4----6-6--7--5--7-7--6--------5--4-4-2-----------
--2----4-4--5---0----4-4--5--2----4-4--5--5--5-5--4--------5--4-4-2-----------
------------------------------------------3----------------3--2-2-0-----------
------------------------------------------------------------------------------
   Intro.. PLay twice and at the end of the first chorus   play 2nd time      

------------------------------------------------------------------------------
--------------------------------------------2---------------------------------
---4-----------5----------------------------3---------------------------------
---2-----------5-------------5--------------0---------------------------------
---------------3-------------5------------------------------------------------
-----------------------------3------------------------------------------------
  "dont tell me what to think  cause i dont care this time"                   
[ Tab from: http://www.guitartabs.cc/tabs/0-9/3_doors_down/going_down_in_flames_tab.html ]
------------------------------------------------------------------------------
---------------------------------------------3--------------------------------
---4---------------5-------------------------2--------------------------------
---2---------------5---------5---------------0--------------------------------
-------------------3---------5------------------------------------------------
-----------------------------3------------------------------------------------
  "catch me when i fall   or need me when im not here at all"                 

------------------------------------------------------------------------------
------------------------------------------------------3-----------------------
----4---6-6-7-----5-----------------------------------2-----------------------
----2---4-4-5-----5-------------------------5---------0-----------------------
------------------3-------------------------5---------------------------------
--------------------------------------------3---------------------------------
 "im goin down in flames     im fallin into this   oh yes"                    

------------------------------------------------------------------------------
------------------------------------------------------------------------------
--4------5-------------2------------------------------------------------------
--2------5------5------2------------------------------------------------------
---------3------5------0------------------------------------------------------
----------------3-------------------------------------------------------------
  this is the part with the guitarist singing as well..listen for timing      

------------------------------------------------------------------------------
--------3---------------------------------------------------------------------
--4-----2----4----5--4--------------------------------------------------------
--2-----0----2----5--4--------------------------------------------------------
------------------3--2--------------------------------------------------------
------------------------------------------------------------------------------
   this is where it slows down and the 'solo' is played...listen for timing   

------------------------------------------------------------------------------
------------------------------------------------------------------------------
------------------------------------------------------------------------------
------------------------------------------------------------------------------
------------------------------------------------------------------------------
------------------------------------------------------------------------------
                                                                              

Comments