3 Doors Down - Duck And Run Chords & Tabs

 

Duck And Run Chords & Tabs

3 Doors Down Chords & Tabs

Version: 2 Type: Tab 0 ratings
1 star 2 stars 3 stars 4 stars 5 stars
comments

Duck And Run Tab

3 Doors Down - Duck And Run 

~ = hold/Let Ring		
/ = slide up
h = hammer on	
p = pull off		
t = tap (hammer and pull)

Intro:                                 (10's, not 1's and 0's)   
e-------------------|-------------------|-------------------|-------------------|
B-------------------|-------------------|-------------------|-------------------|
G--9---9-9-9-9-9----|-12--12--11--14----|-------------------|-------------------|
D-------------------|-------------------|-10--1010101010----|--9---9--10--12----|
A--7---7-7-7-7-7----|-10--10---9--12----|-------------------|-------------------|
E-------------------|-------------------|--8---8-8-8-8-8----|--7---7---8--10----|

Verse:
e-------------------|-------------------|
B-------------------|-------------------|
G-------------------|-------------------|
D-------------------|-------------------|
A--5h7-7-7-7-7-5----|-------------------|
E-------------------|------7---5---7t8--|
       pm....
Chorus: 
Listen to song for correct strums
e-------------------|-------------------|-------------------|-------------------|
B-------------------|-------------------|-------------------|-------------------|
G-------------------|-------------------|--5----------------|--4-----7----------|
D--2----------------|--5-----4----------|--5----------------|--4-----7----------|
A--2----------------|--5-----4----------|--3----------------|--2-----5----------|
E--0----------------|--3-----2----------|-------------------|-------------------|
[ Tab from: http://www.guitartabs.cc/tabs/0-9/3_doors_down/duck_and_run_tab_ver_2.html ]
Pre verse thing:
E----------------------------------|        ----------------------|
B----------------------------------|        ----------------------|
G--4-------------------------------|        -4---------0-0-0-0-0--|
D--2-4--5--2-2-4-5-----------------|  THEN  -2-4-5-----0-0-0-0-0--|
A----2--3--0-0-2-3-----------------|        ---2-3-----0-0-0-0-0--|
E----------------------------------|        -----------0-0-0-0-0--|
                                                      pm.....
Interlude: 
E-------------------|-------------------|
B-------------------|-------------------|
G-------------------|--5---4---7--------|
D--2----------------|--5---4---7--------|
A--2----------------|--3---2---5--------|
E--0----------------|-------------------|(played before solo)


Solo: (play twice over verse)
e-----------------------------------|-----------------------------------|
B-----------------------------------|-----------------------------------|
G---------12--11--12p(11)-----------|---------12--11--12p(11)-12-/(14)--|
D-/14--~------------------12--12/---|/(14)-~----------------------------|
A-----------------------------------|-----------------------------------|
E-----------------------------------|-----------------------------------|
   .       .       .       .           .       .       .       .

e-----------------------------------|-----------------------------------|
B-----------------------------------|-----------------------------------|
G-12---~--12--11--12p(11)-----------|-----------------------------------|
D-------------------------12--12/---|/(14)-~----------------------------|
A-----------------------------------|-----------------------------------|
E-----------------------------------|-----------------------------------|
Comments