3 Doors Down - Duck And Run Chords & Tabs

 

Duck And Run Chords & Tabs

3 Doors Down Chords & Tabs

Version: 10 Type: Tab 0 ratings
1 star 2 stars 3 stars 4 stars 5 stars
comments

Duck And Run Tab

3 doors down
duck and run

standard tuning

Tabed by: cssnowman

Ive seen them live and I took a peak at the book so I know the intro is like this

|-------------------------------------------------------------------|
|-------------------------------------------------------------------|
|--9-9-9-99--12-1212--10-9------------------------------------------|
|--0-0-0-00---0--0-0---0-0----10-10-10-1010--9-9-9-99-10--12--------|
|------------------------------0--0--0--0-0--0-0-0-00--0---0--------|
|-------------------------------------------------------------------|

|-------------------------------------------------|
|-------------------------------------------------|
|-------------------------------------------------|
|-------------------------------------------------|
|-7h9-xx-9-x-3-2-0-2h3p2p0------------------------|
|-------------------------------------------------|

This^(above) alternates with this (listen closly and you can hear the change)
|----------------------------------------------------|
|----------------------------------------------------|
|----------------------------------------------------|
|----------------------------------------------------|
|-7h9-xx-9-x-3-2-0--2--3-----------------------------|
|----------------------------------------------------|

|---------------------------------------------------|
|---------------------------------------------------|
|--------------------5-5-5-5-5--4-4-x-2-------------|
|-2--2-2--5--5-5--5--5-5-5-5-5--4-4-x-2-------------|
|-2--2-2--5--5-5--5--3-3-3-3-3--2-2-x-0-------------|
|-0--0-0--3--3-3--3---------------------------------|
[ Tab from: http://www.guitartabs.cc/tabs/0-9/3_doors_down/duck_and_run_tab_ver_10.html ]
|---------------------------|--------------------------|
|---------------------------|--------------------------|
|---------------------------|--------------------------|
|---------------------------|-5--5--5------------------|
|-7-0-2-0-3-0-2-0-2h3p2p0---|-5--5--5------------------|
|---------------------------|-3--3--3------------------|

Like the other riff the hammering and pulling parts alternate to this
|---------------------------|--------------------------|
|---------------------------|--------------------------|
|---------------------------|--------------------------|
|---------------------------|-5--5--5------------------|
|-7-0-2-0-3-0-2-0-2-x-2-3---|-5--5--5------------------|
|---------------------------|-3--3--3------------------|

solo
|--------------------------------------------------------------|
|--------------------------------------------------------------|
|--------------------------------------------------------------|
|---------12-11-12p11----------12-11-12p11-11--14v~~~~---------|
|-14v~~~--------------12-14~~~---------------------------------|
|--------------------------------------------------------------|

outro
|---------------------------|
|---------------------------|
|---------------------------|
|---------------------------|
|-7-0-2-0-3-0-2-0-2h3p2p0---|
|---------------------------|

alternates with
|---------------------------|
|---------------------------|
|---------------------------|
|---------------------------|
|-7-0-2-0-3-0-2-0-2-x-2-3---|
|---------------------------|
and ends with
|---------------------------|
|---------------------------|
|---------------------------|
|---------------------------|
|-7-0-2-0--3----------------|
|---------------------------|

I think thats everything. Great song and easy to play. Enjoy
Comments