3 Doors Down - Duck And Run Chords & Tabs

 

Duck And Run Chords & Tabs

3 Doors Down Chords & Tabs

Version: 1 Type: Tab 0 ratings
1 star 2 stars 3 stars 4 stars 5 stars
comments

Duck And Run Tab

#----------------------------------PLEASE NOTE--------------------------------#
#This file is the author's own work and represents their interpretation of the#
#song. You may only use this file for private study, scholarship, or research.#
#-----------------------------------------------------------------------------#

Author/Artist: 3 Doors Down
Title: Duck and Run
Transcribed by: Jacob Moon
Email: Jakm7@aol.com
[ Tab from: http://www.guitartabs.cc/tabs/0-9/3_doors_down/duck_and_run_tab.html ]
I believe THIS is the right way to play the main riff of Duck and Run. 
I remember seeing them on Jay Leno playing pwr/bar chords on the main riff.
If you disagree with me that this isn't the way you play the main riff,
please email me. 

Played fast w/distortion.

e|---------------------------------------|
B|---------------------------------------|
G|---------------------------------------|
D|-12/14----14---x--10--9--x--7/9--10----|
A|-12/14----14---x--10--9--x--7/9--10----|
E|-10/12----12---x---8--7--x--5/7---8----|


e|---------------------------------------|
B|---------------------------------------|
G|---------------------------------------|
D|-12/14----14---x--10--9--x--7/9--10--7-|
A|-12/14----14---x--10--9--x--7/9--10--7-|
E|-10/12----12---x---8--7--x--5/7---8--5-|





Comments