3 Doors Down - Dangerous Game Chords & Tabs

 

Dangerous Game Chords & Tabs

3 Doors Down Chords & Tabs

Version: 3 Type: Tab 0 ratings
1 star 2 stars 3 stars 4 stars 5 stars
comments

Dangerous Game Tab

   
Artist: 3 Doors Down
Title: Dangerous Game
Album: Away From the Sun
Tuning: Standard (E A D G B E)

Tabbed by: Adam (ninjaadam44@yahoo.com)

ok, i'm tabbing this out for 1 guitar... most of the second guitar
parts seem to be little fills based around the notes in the intro,
being from Am and Am7, both in the open form, and an octave up.

well, i've had this file sitting here for 5 months without finishing
it, so i'm submitting as much as i got done. it could prove to be 
helpful to someone... you should be able to figure out the rest of 
the song from this anyway, so good luck with it.

intro
e|--0---0----------------------------------------------------------|
B|--1---1----1-0---------------------------------------------------|
G|--0h2-0--2-----0-----------------------------------14-12-12h14---|
D|--2---2----------2/5-5/7-7/9-5~----------------------------------|
A|--0---0-----------------------------3-5-5-3-5/7-10---------------|
E|--------------------------------3-5------------------------------|

0:14
e|-----------------------------------------------------------------|
B|--13-13-13h15-13---13-------13-------13-13-12h13-12--------------|
G|--12-12-12----12------12-12----12-------------------14-12-12h14--|
D|----------------------------------14-----------------------------|
A|-----------------------------------------------------------------|
E|-----------------------------------------------------------------|
[ Tab from: http://www.guitartabs.cc/tabs/0-9/3_doors_down/dangerous_game_tab_ver_3.html ]
e|--------------------------------------------------0--------------|
B|--------------1----1-1-1-1/3--1---1-------1---1h3----------------|
G|--12-14~--0h2---0--2-2-2-2/4----0-0h2-2h4---2--------------------|
D|-------------------2-2-2-2/4-------------------------------------|
A|-----------------------------------------------------------------|
E|-----------------------------------------------------------------|

verse
e|---------------------------0---0-0-0--0-0--0~--------------------|
B|------------1-----------0--1---1-1-1--1-1--1~--------------------|
G|--0h2-0-----2------0--2----0h2-0-0-0--2-2--2~--------------------|
D|--------2-0-2----2--0------2---2-2-2--2-2--2~--------------------|
A|------------0--0-----------0---0-3-x--0-0--0~--------------------|
E|-----------------------------------3-----------------------------|

1:03 chorus
e|-----------------------------------------------------------------|
B|-----------------------------------------------------------------|
G|-2--7-7---5--7-7---2--7-7---5--7-7---2--7-7---5--7-7---2~--------|
D|-2--7-7---5--7-7---2--7-7---5--7-7---2--7-7---5--7-7---2~--------|
A|-0--5-5---3--5-5---0--5-5---3--5-5---0--5-5---3--5-5---0~--------|
E|-----------------------------------------------------------------|

e|---------------888888-------------888888-------------888888------|
B|---------------888888-------------888888-------------888888--1p0-|
G|-7\2-2-2--0-2-----------2-2--0-2-----------2-2--0-2--------------|
D|-7\2-2-2--2-2-----------2-2--2-2-----------2-2--2-2--------------|
A|-5\0-0-0--0-0-----------0-0--0-0-----------0-0--0-0--------------|
E|-----------------------------------------------------------------|

e|-------------------------888888-------------888888---------------|
B|-------------------------888888-------------888888-1p0-----------|
G|-0-------------2-2--0-2-----------2-2--0-2-------------0---------|
D|---2p0---------2-2--2-2-----------2-2--2-2---------------2p0-----|
A|-------3p0-3---0-0--0-0-----------0-0--0-0-------------------0-3~|
E|-----------------------------------------------------------------|

1:36 verse 2 [this is where i quit, obviously]

comments, corrections, etc. can be sent to 
ninjaadam44@yahoo.com
Comments