3 Doors Down - Dangerous Game Chords & Tabs

 

Dangerous Game Chords & Tabs

3 Doors Down Chords & Tabs

Version: 2 Type: Tab 0 ratings
1 star 2 stars 3 stars 4 stars 5 stars
comments

Dangerous Game Tab

   
333333333  DDDDDDD     DDDDDDD
333333333  DDDDDDDDD   DDDDDDDDD
      333  DDD   DDD   DDD   DDD
     333   DDD    DDD  DDD    DDD
   3333    DDD    DDD  DDD    DDD
    333    DDD    DDD  DDD    DDD
     333   DDD    DDD  DDD    DDD
      333  DDD   DDD   DDD   DDD
333333333  DDDDDDDD    DDDDDDDD
333333333  DDDDDDD     DDDDDDD

Song:   Dangerous Game
Artist: 3 Doors Down
Album:  Away From The Sun
Tabber: Ryan Schneider
E-mail: RSpimp7784@yahoo.com
Timing included(extra columns made when strings played at 10th fret)

h : hammer on 
p : pull off
/ : slide up
b : bend
v : vibrato
\ : slide down
d : down strum
u : up strum

Chords:[E A D G b E]
A5    :[x 0 2 2 x x]
Am    :[x 0 2 2 1 0]
C     :[x 3 2 0 1 0]
D(4)  :[x 5 4 0 3 x]

Intro:
e|----------------|----------------|----------------|----------------|
B|----------------|----------------|----------------|----------------|
G|----------------|------5p4-------|----------------|----------------|
D|5/7-----5-------|----------5---5-|5/7--/9--\--5---|----------------|
A|----------------|------------7---|----------------|------3-5--5--3-|
E|----------------|----------------|----------------|--3-5-----------|

e|----------------|--------5-------|-----------------|--8---8-8/10-8---|
B|----------------|------5---8-----|8/10-------------|--8---8-8/10-8---|
G|----------------|----------------|-----------------|-----------------|
D|------------5---|----------------|-----------------|-----------------|
A|5----/7---------|----------------|-----------------|-----------------|
E|----------------|----------------|-----------------|-----------------|

e|--8-----8------8-|------7h8p7------|-------0----------|----------------|
B|----8-8---8------|------------10\8-|--8/10---10-------|----------0-----|
G|-----------------|-----------------|------------------|------------0---|
D|------------10---|-----------------|------------------|------5h7-------|
A|-----------------|-----------------|------------------|----------------|
E|-----------------|-----------------|------------------|----------------|

e|----------------|----------------|----------------|----0-----0-----|
B|----------------|----------0-----|----------0-----|----------------|
G|----------5-----|------------0---|------5---------|4/5---5/7---7/9-|
D|------5h7---7---|------5h7-------|----------------|----------------|
A|----------------|----------------|----------------|----------------|
E|----------------|----------------|----------------|----------------|

Verse strumming pattern:
 |d---------------|d-------d-------|

Verse fill:
Repeats 8x throughout the verse. Played on a separate guitar.
e|----------------|----------------|
B|------0h1-0-----|----------------|
G|-------------2--|----0-------0---|
D|----------------|--2-------4-----|
A|----------------|3-------5-------|
E|----------------|----------------|
...................


Chorus:
  D       u   D           D        D       u   D           u
e|--------------------------------|--------------------------------|
B|--------------------------------|--------------------------------|
G|--------x---7-----------7-------|5-------x---7-----------7-------|
D|7-------x---7-----------7-------|5-------x---7-----------7-------|
A|7-------x---5-----------5-------|3-------x---5-----------5-------|
E|5-------------------------------|--------------------------------|


  D       u   D           D        D       u   D           u
e|--------------------------------|--------------------------------|
B|--------------------------------|--------------------------------|
G|--------x---7-----------7-------|5-------x---7-----------7-------|
D|7-------x---7-----------7-------|5-------x---7-----------7-------|
A|7-------x---5-----------5-------|3-------x---5-----------5-------|
E|5-------------------------------|--------------------------------|


  D       u   D           D        D       u   D           D
e|--------------------------------|--------------------------------|
B|--------------------------------|--------------------------------|
G|--------x---7-----------7-------|5-------x---7-----------7-------|
D|7-------x---7-----------7-------|5-------x---7-----------7-------|
A|7-------x---5-----------5-------|3-------x---5-----------5-------|
E|5-------------------------------|--------------------------------|
  
[ Tab from: http://www.guitartabs.cc/tabs/0-9/3_doors_down/dangerous_game_tab_ver_2.html ]
  d{Hold cord~~~~~~~~~~~~~~~~~~~~~~~~~~~~~~~~~~~~~~~~~~~~~~~}
e|--------------------------------|--------------------------------|
B|--------------------------------|--------------------------------|
G|--------------------------------|--------------------------------|
D|7-------------------------------|--------------------------------|
A|7-------------------------------|--------------------------/17--\|
E|5-------------------------------|--------------------------------|


  D     D u   D   D u D u D u D u  D     D u   D   D u D u D u D u
e|--------------------------------|--------------------------------|
B|--------------------------------|--------------------------------|
G|--------------------------------|--------------------------------|
D|7-----7-x---5---x-x-x-x-x-x-x-x-|7-----7-x---5---x-x-x-x-x-x-x-x-|
A|7-----7-x---5---x-x-x-x-x-x-x-x-|7-----7-x---5---x-x-x-x-x-x-x-x-|
E|5-----5-x---3---x-x-x-x-x-x-x-x-|5-----5-x---3---x-x-x-x-x-x-x-x-|

  D     D u   D   D u D u D u D u 
e|--------------------------------|--------------------------------|
B|--------------------------------|--------------------------------|
G|--------------------------------|4h5-4---------------------------|
D|7-----7-x---5---x-x-x-x-x-x-x-x-|--------5-----------------------|
A|7-----7-x---5---x-x-x-x-x-x-x-x-|------------2h3-2---------------|
E|5-----5-x---3---x-x-x-x-x-x-x-x-|--------------------3-/-5-------|
                     

  D     D u   D   D u D u D u D u  D     D u   D   D u D u D u D u
e|--------------------------------|--------------------------------|
B|--------------------------------|--------------------------------|
G|--------------------------------|--------------------------------|
D|7-----7-x---5---x-x-x-x-x-x-x-x-|7-----7-x---5---x-x-x-x-x-x-x-x-|
A|7-----7-x---5---x-x-x-x-x-x-x-x-|7-----7-x---5---x-x-x-x-x-x-x-x-|
E|5-----5-x---3---x-x-x-x-x-x-x-x-|5-----5-x---3---x-x-x-x-x-x-x-x-|

  D     D u   D   D u D u D u D u
e|--------------------------------|--------------------------------|
B|--------------------------------|--------------------------------|
G|--------------------------------|4h5-4---------------------------|
D|7-----7-x---5---x-x-x-x-x-x-x-x-|--------5-----------------------|
A|7-----7-x---5---x-x-x-x-x-x-x-x-|------------2h3-2---------------|
E|5-----5-x---3---x-x-x-x-x-x-x-x-|--------------------3-/-5-------|
                         
Chorus: [Scroll Up]


{Interlude into guitar solo}
Sorry I don't have the interlude or guitar solo. I haven't figured those out yet.
The interlude I'm thinking is some kind of palm mute. But I haven't quite figured
it out. And the guitar solo is really hard for me to pick up. I'll work on it
some more

Ending chorus:
  D       u   D           D        D       u   D           D
e|--------------------------------|--------------------------------|
B|--------------------------------|--------------------------------|
G|--------x---7-----------7-------|5-------x---7-----------7-------|
D|7-------x---7-----------7-------|5-------x---7-----------7-------|
A|7-------x---5-----------5-------|3-------x---5-----------5-------|
E|5-------------------------------|--------------------------------|
What will we  do?            

  D       u   D           D        D       u   D           D
e|--------------------------------|--------------------------------|
B|--------------------------------|--------------------------------|
G|--------x---7-----------7-------|5-------x---7-----------7-------|
D|7-------x---7-----------7-------|5-------x---7-----------7-------|
A|7-------x---5-----------5-------|3-------x---5-----------5-------|
E|5-------------------------------|--------------------------------|


  D       u   D           D        D       u   D           D
e|--------------------------------|--------------------------------|
B|--------------------------------|--------------------------------|
G|--------x---7-----------7-------|5-------x---7-----------7-------|
D|7-------x---7-----------7-------|5-------x---7-----------7-------|
A|7-------x---5-----------5-------|3-------x---5-----------5-------|
E|5-------------------------------|--------------------------------|
  

  d{Hold chord~~~~~~~~~~~~~~~~~~~~~~~~~~~~~~~~~~~~~~~~~~~~~~~~~~~~}
e|--------------------------------|--------------------------------|
B|--------------------------------|--------------------------------|
G|--------------------------------|--------------------------------|
D|7-------------------------------|--------------------------------|
A|7-------------------------------|--------------------------------|
E|5-------------------------------|--------------------------------|
  

  D
e|--------------------------------|
B|--------------------------------|
G|--------------------------------|
D|7--\----------------------------|
A|7--\----------------------------|
E|5--\----------------------------|
Comments