3 Doors Down - Changes Chords & Tabs

 

Changes Chords & Tabs

3 Doors Down Chords & Tabs

Version: 6 Type: Tab 0 ratings
1 star 2 stars 3 stars 4 stars 5 stars
comments

Changes Tab

Tabed By: cssnowman

Drop D tuning: DADGBe

|----0-----------------0--------------------------------------|
|----10--------8---------10-------8------8---8-10-11-10~~-----|
|-------10-------9----------10------9------9------------------|
|----------0-------10----------0------10----------------------|
|-------------------------------------------------------------|
|--0----------------------------------------------------------|

|----------------------------------------------------------------|
|----------------------------------------------------------------|
|----------------------------------------------------------------|
|-----3---------2-----3\2/3--------------------------------------|
|---3-----3---2-------3\2/3--------------------------------------|
|-3-----3---2---------3\2/3--------------------------------------|

|-----0--0--0--0---------------------------------------|
|----10-10-10-10---------------------------------------|
|----10-10-10--9---------------------------------------|
|-0----------------------------------------------------|
|-0----------------------------------------------------|
|-0----------------------------------------------------|
[ Tab from: http://www.guitartabs.cc/tabs/0-9/3_doors_down/changes_tab_ver_6.html ]
Before the Chorus starts it sounds like there are some harmonics played at the 10th or 12th frets
|----------------------------------------------------------------------|
|----------------------------------------------------------------------|
|----------------------------------------------------------------------|
|-0~--10-12--7-8-5---7-8-10-12-0---------------------------------------|
|-0~--10-12--7-8-5---7-8-10-12-0---------------------------------------|
|-0~--10-12--7-8-5---7-8-10-12-0---------------------------------------|

This part right after the chorus is too long for me to tab all out so you can figure out 
struming patterns
|--0--0--0--0-|
|-10--8--7--5-|
|-10--9--7--5-|
|-------------|
|-------------|
|-------------|

And later in the song theres a part that changes at the end of the thing right above this^

|------------------------------------------------------------|
|----3----5--5/7---------------------------------------------|
|-/3----5----5/7---------------------------------------------|
|------------------------------------------------------------|
|------------------------------------------------------------|
|------------------------------------------------------------|

Closer to the end of the song one of the guitars plays a bunch of high pitch notes so if 
dont have a 24 fret guitar you may have to bend some strings. you can figure out the 
on this also
|--24(keep pickin)--22-19-17-15-14-12-----------------|
|-----------------------------------------------------|
|-----------------------------------------------------|
|-----------------------------------------------------|
|-----------------------------------------------------|
|-----------------------------------------------------|
Comments