3 Doors Down - Changes Chords & Tabs

 

Changes Chords & Tabs

3 Doors Down Chords & Tabs

Version: 5 Type: Tab 0 ratings
1 star 2 stars 3 stars 4 stars 5 stars
comments

Changes Tab

   
3 Doors Down - Changes
tabbed by Q Huang

intro: 3x
clean

e-------5---------------------------5------------------5--6-----5------------
B----------6-----8--5------------------6-----8--5---8--------8---------------
G-------------7---------5-----------------7----------------------------------
D---0----------------------8--7--0-------------------------------------------
A----------------------------------------------------------------------------
E----------------------------------------------------------------------------

e-------5--------------------------------------------------------------------
B----------6-----8--5--------------------------------------------------------
G-------------7---------5----------------------------------------------------
D---0----------------------8-------3---------2-------------------------------
A-------------------------------3---------2-----2----------------------------
E----------------------------1-------1-0---------02320-----------------------

verse 1: 2x
clean

e-----5-5-5-5------5-5-5-5---------------------------------------------------
B-----6-6-6-6------6-6-6-6---------------------------------------------------
G-----7-7-7-7------7-7-7-7---------------------------------------------------
D--7------------7------------------------------------------------------------
A--5------------5------------------------------------------------------------
E--5------------5------------------------------------------------------------
   D  U D U U   D  U D U U

verse 2: 1x    
heavy distortion
muted
[ Tab from: http://www.guitartabs.cc/tabs/0-9/3_doors_down/changes_tab_ver_5.html ]
e--5--5--5--5----------------------------------------------------------------
B--5--5--5--5----------------------------------------------------------------
G--7--7--7--7----------------------------------------------------------------
D--7--7--7--7----------------------------------------------------------------
A--5--5--5--5----------------------------------------------------------------
E--5--5--5--5----------------------------------------------------------------


chorus: 4x
heavy distortion 

e--3--5--5--6--5--3--5--3--5--5-5--------------------------------------------
B--3--5--5--6--5--3--5--3--5--5-5--------------------------------------------
G--5--7--5--6--5--5--5--5--5--7-7--------------------------------------------
D--5--7--7--8--7--5--7--5--7--7-7--------------------------------------------
A--3--5--7--8--7--3--7--3--7--5-5--------------------------------------------
E--3--5--5--6--5--3--5--3--5--5-5--------------------------------------------

intro: 3x
verse 1: 2x
verse 2: 1x
chorus: 4x 
verse 3: 1x

e--5-5-5--3--3-----3-3-3--1--1-----1-1-1--5--5-----5-5-5--3--3---------------
B--7-7-7--5--5-----5-5-5--3--3-----3-3-3--5--5-----7-7-7--5--5---------------
G--7-7-7--5--5-----5-5-5--3--3-----3-3-3--6--6-----7-7-7--5--5---------------
D--5-5-5--3--3-----3-3-3--1--1-----1-1-1--7--7-----5-5-5--3--3---------------
A--5-5-5--3--3-----3-3-3--1--1-----1-1-1--5--5-----5-5-5--3--3---------------
E--5-5-5--3--3-----3-3-3--1--1-----1-1-1--5--5-----5-5-5--3--3---------------
   D U D  D  D     D U D  D  D     D U D  D  D     D U D  D  D

verse 2: 1x
chorus: 10x
heavy distortion 
verse 3: 1x
Comments