3 Doors Down - Changes Chords & Tabs

 

Changes Chords & Tabs

3 Doors Down Chords & Tabs

Version: 2 Type: Tab 0 ratings
1 star 2 stars 3 stars 4 stars 5 stars
comments

Changes Tab

3 doors down
Song-changes
Album-away from the sun
Standard tuning

(Guitar 1) clean
[ Tab from: http://www.guitartabs.cc/tabs/0-9/3_doors_down/changes_tab_ver_2.html ]
e------------------------------------------------------------------------------
B-------10--10------------------------------10--10-------------8--10--11--8--10
G-----------------10--7--9---------------------------10--7--9------------------
D---0------------------------10--7--5--0---------------------------------------
A------------------------------------------------------------------------------
E------------------------------------------------------------------------------

e---------------------------------------------
B-10--10--------------------------------------
G--------10--7--9-----------------------------
D-----------------10--7--0------3-------2-----
A-----------------------------3-------2-------
E---------------------------1-----1-0---------


Ummm,yea,  thatís it for now
Comments