3 Doors Down - Better Life Chords & Tabs

 

Better Life Chords & Tabs

3 Doors Down Chords & Tabs

Version: 1 Type: Bass Tab 0 ratings
1 star 2 stars 3 stars 4 stars 5 stars
comments

Better Life Bass Tab

Band- 3 Doors Down
Song- Better Life


  G-|---------------|------------------|
  D-|---------------|------------------| x2 Intro
  A-|---------------|------------------|
  E-|5-2-0h2-0-2-0h2|5-2-0h2-0-2-0h2---|

G-|-----------------------------------------|
D-|-----------------------------------------|
A-|-----------------------------------------|Verse
E-|0h22220h5-0h2222h40-0h22220h5-0h22220h7--|

G-|------------------------------------|
D-|------------------------------------|
A-|------------------------------------| Chorus
E-|2-3-5-3-2-305-5-7-7-7777------------|
[ Tab from: http://www.guitartabs.cc/tabs/0-9/3_doors_down/better_life_btab.html ]
G-|--------------------|----------------------|---------------------|
D-|--------5-----------|---------5--------7-5-|---------5-----------| Modified
A-|5h77775---5h77775---|-5h77775---5h7777-----|-5h77775---5h77775---|  Chorus
E-|------------------5-|----------------------|-------------------5-|

G-|------------------------------|-----------|
D-|------------------------------|-----------| Bridge
A-|------------------------------|-----------|
E-|0-2-3-5-7-9h10-0-2-3-10-8-7-0-|-0-2-3-----|

G-|--------------------|------------------------|
D-|--------5-----------|---------7--------------| Chorus #2
A-|5h77775---5h77775---|-7h99997---7h99997------|
E-|------------------5-|-------------------7----|

G-|-------------------------------|
D-|-------------------------------| Outro x2
A-|-------------------------------|
E-|-0-2-0h2-2-0-2-0h2-2-5-2-0h2---|

ENJOY!!!!
Comments