3 Doors Down - Be Like That Correct Chords & Tabs

 

Be Like That Correct Chords & Tabs

3 Doors Down Chords & Tabs

Version: 1 Type: Tab 6 ratings
1 star 2 stars 3 stars 4 stars 5 stars
comments

Be Like That Correct Tab

   
ive seen so many submissions on this song but they were all different from
the one that i have, well they were all similar, so i hope this verion
helps u get the rite song!! just so u know.... / means down strum 
and / means up stroke

chords:


      G                  Dsus              Em7
E ---------3---------------------0------------------0--------
B------------3---------------3-----3--------------3---3------
G-----0--------0---------------2-----2------------------0----
D-------0--------0---------0-----------0--------2------------
A---------------------------------------------2--------------
E---3---------------------------------------0----------------
[ Tab from: http://www.guitartabs.cc/tabs/0-9/3_doors_down/be_like_that_correct_tab.html ]
         C9
E-----------0-----------------------------------
B---------3---3---------------------------------
G-------0-------0-------------------------------
D-----1-----------------------------------------
A---2-------------------------------------------
E-----------------------------------------------

this goes thru the intro and the verses. then you go to this for the
chorus:

G (320033) / //// / //// (or down pause down up down up pause down up down up)
Dsus (XX0230) / //// / ////
Em7 (022030) / //// / ////
C9 (X32030) / //// / ////

them after the chorus you strum each chord once
Am Asus Am C Cmaj7 Am G(w/ chorus strum pattern) x2

Am X02210
Asus X02200
C X32010
Cmaj7 x32000

 hope these work for you!!!!!!
ykwimdizzygrl
Comments