3 Doors Down - Away From The Sun Chords & Tabs

 

Away From The Sun Chords & Tabs

3 Doors Down Chords & Tabs

Version: 7 Type: Tab 0 ratings
1 star 2 stars 3 stars 4 stars 5 stars
comments

Away From The Sun Tab

   
AWAY FROM THE SUN
3 Doors Down

tabbed by Will Fuller (isthatmycow@hotmail.com)

regular tuning

intro/verses/preverse(everything but the chorus & bridge)
|---------------------------------------------------------------0-
|---1-----1-----1---1-----0h1-------1-----1-----1---1-----0h1-3---
|-----2-----2---------0---------0-----0-----0---------0-----------
|-3-----3-----3---2-----2-----2---------2-----2---------0---------
|---------------------------------3---------------2---------------
|-----------------------------------------------------------------
[ Tab from: http://www.guitartabs.cc/tabs/0-9/3_doors_down/away_from_the_sun_tab_ver_7.html ]
|-----------------------------------------------------------------
|---1-----1-----1---1-----0h1-------3---1---0-------3---1---0---1-
|-----2-----2---------0---------0-----0---0---0---0---0---0---0---
|-3-----3-----3---2-----2-----2-----------------------------------
|-----------------------------------------------------------------
|---------------------------------3~------------3~----------------

Chorus
  F
|-1~--------------------1~------------------1~--------------------1~------------
|-1~--------------------1~------------------1~--------------------1~------------
|-2~--------5-----5-----2~--------0---------2~--------5-----5-----2~------------
|-3~------5-----5-------3~----2-3---0~------3~------5-----5-------3~--------0---
|-3~----3-----2-----3~--3~--------------3---3~----3-----2-----3~--3~----2h3-----
|-1~--------------------1~----------------0-1~--------------------1~----------3~

Bridge (strum)
  Am    G     F     G
|-0-----3-----1-----3~--------8\10-10-10-10/8-8\10-
|-2-----3-----1-----3~--------8\10-10-10-10/8-8\10-
|-3-----0-----2-----0~---
|-3-----0-----3-----0~---
|-0-----2-----3-----2~---
|-x-----3-----1-----3~---

thats about it....the order and words are really easy to figure out, but if you
can't email me and i will send them to you
Comments