3 Doors Down - Away From The Sun Chords & Tabs

 

Away From The Sun Chords & Tabs

3 Doors Down Chords & Tabs

Version: 5 Type: Tab 8 ratings
1 star 2 stars 3 stars 4 stars 5 stars
comments

Away From The Sun Tab

   
3 Doors Down - Away from the Sun (tab)

Tabbed by: tuffrocker@yahoo.com

I know this is not perfect, did it in a hurry,  but it is close,
so it should at least get you started!

[Intro/Verse passage]

  F           E6           C               G
                    h
e------------------------------------------------------0-|
B---1---1--1---1---0/1-------1-----1-----1---1---0---3---|
G----2---2------0------0-------0-----0---------0---0-----|
D-3---3---3---2--2-------2-------2-----2-----------------|
A--------------------------3-----------------------------|
E------------------------------------------3-------------|

[ Tab from: http://www.guitartabs.cc/tabs/0-9/3_doors_down/away_from_the_sun_tab_ver_5.html ]
  F           E6           G
                      h
e--------------------------------------------------------|
B---1---1--1---1-----0/1----3---1---0---1---3---1---0---1|
G----2---2-------0------0-----0---0---0---0---0---0---0--|
D-3---3---3---2----2-----2-------------------------------|
A--------------------------------------------------------|
E--------------------------3----------3------------------|


[Chorus]

      F  C  B   C  F             F  C  B   C  F
  m m                    sl   p
e--------------------------------------------------------|
B--------------------------------------------------------|
G----------5--4-----------------------5--4---------------|
D-----3---5--4--5--3-0-2-3/5-3\2-3---5--4--5--3----------|
A-----3--3--2---3--3-------------3--3--2---3--3--2-3-5---|
E-0-0-1------------1-------------1------------1--------3-|



[Bridge after Chorus]= Am, B, F, G


m=Palm mute
sl= slide
p= Pull-off
h= Hammer-on

Comments