3 Doors Down - Away From The Sun Chords & Tabs

 

Away From The Sun Chords & Tabs

3 Doors Down Chords & Tabs

Version: 2 Type: Tab 4 ratings
1 star 2 stars 3 stars 4 stars 5 stars
comments

Away From The Sun Tab

   
song: away from the sun
artist: 3 Doors Down
standard tuning

intro/verse

----------------------------------------------------------------0-------
----1-----1-----1---1------0h1-------1-----1-----1---1----0-1-3---------
------0-----0---------0--------0-------0-----0---------0----------------
--3-----3-----3---2-----2--------2-------2-----2------------------------
-----------------------------------3---------------2--------------------
------------------------------------------------------------------------




-------------------------------------------------------------------------
----1-----1-----1----1-------0h1--------3---1---0-------3---1---0--------
------0-----0----------0---------0--------0---0---0-------0---0---0------
--3-----3-----3---2------2----------2---------------0---------------0----
-------------------------------------------------------------------------
--------------------------------------3---------------3------------------

repeat

chorus:(w/ distortion)
[ Tab from: http://www.guitartabs.cc/tabs/0-9/3_doors_down/away_from_the_sun_tab_ver_2.html ]
-----1------------------------1----------------1-------------------------
-----1------------------------1----------------1-------------------------
-----2-----------0------0-----2----------------2----------0------0-------
-x-x-3---------2------0-------3-----2-3-5-0----3--------2------0---------
-x-x-3-------3------2---------3-------------3--3------3------2-----------
-x-x-1---------------------3--1----------------1-------------------3-----



-1-----------------------------------------------------------------------
-1-----------------------------------------------------------------------
-2-----------------------------------------------------------------------
-3-----------------------------------------------------------------------
-3-----2-3-5-0-----------------------------------------------------------
-1-------------3 ~ ~ ~ ~ ~-----------------------------------------------


coming out of the second chorus the chords are

A............G............F...............G



hope you enjoy playing it
Comments