3 Days Grace - Overrated Chords & Tabs

 

Overrated Chords & Tabs

3 Days Grace Chords & Tabs

Version: 1 Type: Tab 0 ratings
1 star 2 stars 3 stars 4 stars 5 stars
comments

Overrated Tab

   
Tuning:Dropped D, 1 whole step down (C,G,C,F,A,D)
Intro
e----------------------------------------------------
b----------------------------------------------------
g----------------------------------------------------
d----------------------------------------------------
a-----------8-7----10-8-7----------------------------
d--0-8-7-0------7----------7-10-8-7-8----------------

Verse (x5)
Gtr.1
e--------------------------------------------------------------------
b--------------------------------------------------------------------
g--------------------------------------------------------------------
d--7---7---7-----5---5-------------------7---7---7----5--5-----------
a--5---5---3-----7---7/-5---------0-3/-7---------3----7--7/-5----0-3-
d--0----------------------------3------0----------------------3------

Gtr.2 (Optional)
e---------------------------------------
b---------------------------------------
g---------------------------------------
d--0--------------------------0---------
a--0--------------------------0---------
d--0--------------------------0---------
[ Tab from: http://www.guitartabs.cc/tabs/0-9/3_days_grace/overrated_tab.html ]
Chorus
e---------------------------------------
b---------------------------------------
g---------------------------------------
d--0-0---10-10---5-5---3----------------
a--0-0---10-10---5-5---3------0-3-------
d--0-0---10-10---5-5---3----3-----------
Pre-Verse - Gtr.1
e---------------------------------------------------------
b--5-6--5-6--5-6--5-6--5-6--5-6--5-6--5-6-----------------
g---------------------------------------------------------
d---------------------------------------------------------
a---------------------------------------------------------
d---------------------------------------------------------
Gtr.2
e--------------------------------------
b--------------------------------------
g--------------------------------------
d--0-----------------------------------
a--0-----------------------------------
d--0-----------------------------------
Verse (x4)
Gtr.1
e--------------------------------------------------------------------
b--------------------------------------------------------------------
g--------------------------------------------------------------------
d--7---7---7-----5---5----------------7---7---7----5--5--------------
a--5---5---3-----7---7/-5--------0-3/-7-------3----7--7/-5-------0-3-
d--0---------------------------3------0-------------------------3----
Gtr.2
e--------------------------------------------------------------------
b--5-----------------3-----6--------------5-----------3--------6-----
g--------------------------------------------------------------------
d--------------------------------------------------------------------
a--------------------------------------------------------------------
d--------------------------------------------------------------------

Chorus

Bridge
e-------------------------------------------
b-------------------------------------------
g-------------------------------------------
d--0----------------------------------------
a--0----------------------------------------
d--0----------------------------------------

Intro Riff (Palm muted the first 2 times)

Chorus

End with (and use whammy bar to slowly lower the pitch with each strum)
e--------------------------------------------------------------------
b--------------------------------------------------------------------
g--------------------------------------------------------------------
d--0--0--0--0--0--0--0--0--0--0--0--0--0--0--0--0--0--0--0-----------
a--0--0--0--0--0--0--0--0--0--0--0--0--0--0--0--0--0--0--0-----------
d--0--0--0--0--0--0--0--0--0--0--0--0--0--0--0--0--0--0--0-----------

And there it is.E-mail me @ Mzpunkrocker@yahoo.com
Comments