3 Days Grace - I Hate Everything About You Chords & Tabs

 

I Hate Everything About You Chords & Tabs

3 Days Grace Chords & Tabs

Version: 1 Type: Tab 11 ratings
1 star 2 stars 3 stars 4 stars 5 stars
comments

I Hate Everything About You Tab

Three Days Grace: "I Hate Everything About You"

This tab is correct. Email me at John@staticgrooveband.com with any comments.


Tuning: Dropped D Standard (dadgbe)

Intro/Verse:

|----------------------------------------------------------|
|----------------------------------------------------------|
|------6~-----6~-----6~-----6~----4-6~---4-6~---4-6~---4-6~|
|----4-6~---4-6~---4-6~---4-6-----4-6~---4-6~---4-6~---4-6~|
|----4------4------4------4------0------0------0------0----|
|---4----0-4----0-4----0-4------0------0------0------0-----|

                 Pre Chorus
w/ trem effect

|--------0-|
|--------3-|
|--------2-|
|-2--0---0-|
|-2--0-----|
|-2--0-----|

                 Chorus
[ Tab from: http://www.guitartabs.cc/tabs/0-9/3_days_grace/i_hate_everything_about_you_tab.html ]
|-------------------------------------------------------------|
|-------------------------------------------------------------|
|-6-6--6-6--9-------------------------------------------------|
|-4-4--0-0--7---------2------4------0------2------------------|
|-4-4--0-0--7-(x4)----2-(x4)-4-(X4)-0-(X5)-2-(X4)-7-----------|
|-4-4--0-0--7---------2------4------0------2------7-6---------|

                  Bridge

|-------------------------------------------------------------|
|--------------------------------------------add on last bar--|
|-13-14-16--13-14-16--13-14-16--13-14-11-9--------6-----------|
|-XX-XX-XX--XX-XX-XX--XX-XX-XX--XX-XX-XX-X--------X-----------|
|-11-12-14--11-12-14--11-12-14--11-12-11-7--------4-----------|

There is another guitar over the bridge but you cant here it to well.

Intro/Verse
Pre-Chorus
Chorus
Verse
Pre-Chorus
Chorus
Bridge
1/2 Intro
Chorus


Tabbed by John Organek
Comments