38 Special - Hold On Loosely Chords & Tabs

 

Hold On Loosely Chords & Tabs

38 Special Chords & Tabs

Version: 2 Type: Tab 0 ratings
1 star 2 stars 3 stars 4 stars 5 stars
comments

Hold On Loosely Tab

  Hold On Loosely - 38 Special
-------------------------------------------------------------------------------

Tabbed by:Punkrockgumby
Email:forthefinish87@aol.com

Tuning:EADGBe

INTRO/VERSUS
e|--------------------------------------------| DO THIS LIKE 6 TIMES  
B|--------------------------------------------| TO THE CHORUS 
G|-----9XXXXXX-9-9XXXXXX-9-7XXXXXX-7-7XXXXXX--| 
D|-----9XXXXXX-9-9XXXXXX-9-7XXXXXX-7-7XXXXXX--| 
A|-----7XXXXXX-7-6XXXXXX-6-5XXXXXX-5-4XXXXXX--| 
E|-7-5----------------------------------------| 

PRE-CHORUS
e|----------------|
B|----------------|
G|-5------7-------|
D|-5-HOLD-7-HOLD--|
A|-3------5-------|
E|----------------|

CHORUS
e|---------------------------------------------DO THIS ONCE THEN DO THE------|
B|---------------------------------------------THE CORDS AGAIN---------------|
G|-99999999-99999999-77777777-77777777-77-77----9-9-7-7----------------------|
D|-99999999-99999999-77777777-77777777-77-77----9-9-7-7----------------------|
A|-77777777-66666666-55555555-44444444-44-55----7-6-5-4----------------------|
E|---------------------------------------------------------------------------|
[ Tab from: http://www.guitartabs.cc/tabs/0-9/38_special/hold_on_loosely_tab_ver_2.html ]
POST-CHORUS
e|---------------------------------------------------------------------------|
B|---------------------------------------------------------------------------|
G|---7777777777777777--------------------------------------------------------|
D|---7777777777777777--------------------------------------------------------|
A|---5555555555555555--------------------------------------------------------|
E|---------------------------------------------------------------------------|

VERSE
PRE-CHORUS
CHORUS
POST-CHORUS
CHORUS
SOLO
e|-12-12-12-12-14p12----------12-12-12-12-12-11------------------------------|
B|-------------------14p12----------------------14-12------------------------|
G|-------------------------13------------------------------------------------|
D|-------------------------------------------------------11-14-14-11-12------|
A|----------------------------------------------------14---------------------|
E|---------------------------------------------------------------------------|

e|---------------------------------------14-12-14----------------------------|
B|---------------------------------14-12-------------------------------------|
G|---------------------11----14-12-------------------------------------------|
D|------------------12----14-------------------------------------------------|
A|-12\/-12-12-12-14----------------------------------------------------------|
E|---------------------------------------------------------------------------|

DO THE SOLO ENTILL THE END AND HAVE FUN.
Comments