38 Special - Hold On Loosely Chords & Tabs

 

Hold On Loosely Chords & Tabs

38 Special Chords & Tabs

Version: 1 Type: Tab 0 ratings
1 star 2 stars 3 stars 4 stars 5 stars
comments

Hold On Loosely Tab

Intro: 2x then fill #1
e|---------------------------------------------------------|
B|---------------------------------------------------------|
G|-----9-x-x-x-x--9-4-x-x-x-x--4-7-x-x-x-x--7-2-x-x-x-x----|
D|-9-7-9-x-x-x-x--9-4-x-x-x-x--4-7-x-x-x-x--7-2-x-x-x-x----|
A|-9-7-7-x-x-x-x--7-6-x-x-x-x--6-5-x-x-x-x--5-4-x-x-x-x----|
E|-7-5-----------------------------------------------------|

fill #1:             continue...
e|--------------------------------|
B|--------------------------------|
G|-------------------9-4-x-x-x-x--| etc...
D|-------------------9-4-x-x-x-x--|
A|-2-0---------------7-6-x-x-x-x--|
E|-----3b-0-x-x-x-x---------------|


          You see it...            Good lovin gone bad....
e|---------------------------------------------------------|
B|---------------------------------------------------------|
G|-----9-x-x-x-x--9-4-x-x-x-x--4-7-x-x-x-x--7-2-x-x-x-x----|
D|-9-7-9-x-x-x-x--9-4-x-x-x-x--4-7-x-x-x-x--7-2-x-x-x-x----|
A|-9-7-7-x-x-x-x--7-6-x-x-x-x--6-5-x-x-x-x--5-4-x-x-x-x----|
E|-7-5-----------------------------------------------------|
[ Tab from: http://www.guitartabs.cc/tabs/0-9/38_special/hold_on_loosely_tab.html ]
pre chorus:
  My mind goes back...  met some years ago... 
e|---------------------------|
B|4---------------------7----|
G|4---------------------7----|
D|4---------------------7----|
A|2---------------------5----|
E|---------------------------|


chorus:
  Hold on loosly, but don't let go. If you cling...
e|--------------------------------|
B|--------------------------------|
G|-9------4------7--------------2-|etc...
D|-9------4------7--------------2-|
A|-7------6------5--------------4-|
E|--------------------------------|

e|-12-121212-14p12--------12-121212-12-11------------------|
B|----------------14p12------------------14-12-------------|
G|---------------------13----------------------------------|
D|-------------------------------------------------11-14-14|
A|----------------------------------------------14---------|
E|---------------------------------------------------------|

e|---------------------------------------------------------|
B|---------------------------------------------------------|
G|-----------------------------------11tr------14tr-12tr---|
D|-11-12------------------------12tr------14tr-------------|
A|------12\--/12-12tr-12tr-14tr----------------------------|
E|---------------------------------------------------------|

e|----------14tr-12tr-14~~-|
B|14tr-12tr----------------|
G|-------------------------|
D|-------------------------|
A|-------------------------|
E|-------------------------|

Tabbed by: gxj87
Hope you enjoy this!
Comments