36 Crazyfists - With Nothing Underneath Chords & Tabs

 

With Nothing Underneath Chords & Tabs

36 Crazyfists Chords & Tabs

Version: 1 Type: Tab 0 ratings
1 star 2 stars 3 stars 4 stars 5 stars
comments

With Nothing Underneath Tab

36 Crazyfists
With Nothing Underneath
dropped d(tuned down 1 whole step)

pm=palm mute
harm=natural harmonic


Intro                                  x2
|----------------------------------------|---------------|
|----------------------------------------|---------------|
|-8-8--8--8-8-8--8--8-8-8--8--8--8--8--8-|-8-8-8-8-8-8-7-|
|-8-8--8--8-8-8--8--8-8-8--8--8--8--8--8-|-8-8-8-8-8-8-7-|
|-6-6--6--6-6-6--6--6-6-6--6--6--5--5--5-|-6-6-6-6-6-6-5-|
|----------------------------------------|---------------|


Verse              x3
|--------------------|-------------------------|
|--------------------|-------------------------|
|--------------------|-8-7-----8-7-------------|
|-1--0-1-0-0-7--7--7-|-x-x-----x-x----10-10-10-|
|-1--0-1-0-0-5--5--4-|-6-5-----6-5-----8--8--8-|
|-1--0-1-0-0-5--5--4-|------0-------0--8--8--8-|
                           pm      pm


|------------------------------------------------|---------|
|------------------------------------------------|---------|
|------------------------------------------------|---------|
|-101010101010-7-7-7-7-7-7101010101010-0---5---4-|----5--4-|
|--8-8-8-8-8-8-5-5-5-5-5-5-8-8-8-8-8-8-0---5---4-|-3-------|
|--8-8-8-8-8-8-5-5-5-5-5-5-8-8-8-8-8-8-0---5---4-|---------|
                                       pm.......


Chorus
|-------------------------------------------------------------------------------|
|-------------------------------------------------------------------------------|
|-------------------------------------------------------------------------------|
|-4-4--4--4-4-4--4--4-4-4--4--4-7-7--7--7-7-7--7--7-7-7--7--7-7-7--7--7-7--6--6-|
|-2-2--2--2-2-2--2--2-0-0--0--0-0-0--0--0-5-5--5--5-5-5--5--5-4-4--4--4-4--4--4-|
|-2-2--2--2-2-2--2--2-0-0--0--0-0-0--0--0-5-5--5--5-5-5--5--5-4-4--4--4-4--4--4-|


|-------------------------------------------|
|-8-10-10-10-10-10-10-8-8-8-8-8-8-7-7-7-7-7-|
|-x--x--x--x--x--x--x-x-x-x-x-x-x-x-x-x-x-x-|
|-5--7--7--7--7--7--7-5-5-5-5-5-5-4-4-4-4-4-|
|-------------------------------------------|
|-------------------------------------------|

Bridge                  x4
|-------------------------|---------------|
|-------------------------|---------------|
|-------------------------|---------------|
|-0---5---4---8-8-8-8-8-8-|-0---5---4---2-|
|-0---5---4---x-x-x-x-x-x-|-0---5---4---2-|
|-0---5---4---6-6-6-6-6-6-|-0---5---4---2-|
  pm.......                 pm.......

[ Tab from: http://www.guitartabs.cc/tabs/0-9/36_crazyfists/with_nothing_underneath_tab.html ]
|--------------------------------------------------------------------------------------------|
|--------------------------------------------------------------------------------------------|
|--------------------------------------------------------------------------------------------|
|-9-9---------9-9---------9-9---------9--12--12--7-7---------7-7---------5-5---------5--5--5-|
|-7-7---------7-7---------7-7---------7--10--10--5-5---------5-5---------3-3---------3--3--3-|
|-7-7-7-7-7-7-7-7-7-7-7-7-7-7-7-7-7-7-7--10--10--5-5-5-5-5-5-5-5-5-5-5-5-3-3-3-3-3-3-3--3--3-|
      harm...     harm...     harm...                harm...     harm...     harm...


Outro
|---------------------------------------------------|
|---------------------------------------------------|
|-8-8-8-8-8-8-7---8-8-8-8-8-8-7---8-8-8-8-8-8-------|
|-8-8-8-8-8-8-7---8-8-8-8-8-8-7---8-8-8-8-8-8-0---0-|
|-6-6-6-6-6-6-5---6-6-6-6-6-6-5---6-6-6-6-6-6-0---0-|
|---------------------------------------------0---0-|


|-----------------------------------------------------------------------------------------------------------------------|
|-----------------------------------------------------------------------------------------------------------------------|
|-----------------------------------------------------------------------------------------------------------------------|
|-1-1-1-1-1-1-0---1-1-1-1-1-1-0---5---4---1-1-1-1-1-1-0---0---1-1-1-1-1-1-0---1-1-1-1-1-1-0---5---4---1-1-1-1-1-1-0---0-|
|-1-1-1-1-1-1-0---1-1-1-1-1-1-0---5---4---1-1-1-1-1-1-0---0---1-1-1-1-1-1-0---1-1-1-1-1-1-0---5---4---1-1-1-1-1-1-0---0-|
|-1-1-1-1-1-1-0---1-1-1-1-1-1-0---5---4---1-1-1-1-1-1-0---0---1-1-1-1-1-1-0---1-1-1-1-1-1-0---5---4---1-1-1-1-1-1-0---0-|
                              pm.......                                                   pm.......


|-------------------------------------------------------------------------------------------------------------------------------------------|
|-------------------------------------------------------------------------------------------------------------------------------------------|
|---------------------------------------------------------------------------------------------8-8-8-8-8-8-----------------------------------|
|-1-1-1-1-1-1-0---1-1-1-1-1-1-0---5---4---1-1-1-1-1-1-0---0---0---1-1-1-1-1-1-0---1-1-1-1-1-1-x-x-x-x-x-x-1-1-1-1-1-1-0---1-1-1-1-1-1-0---0-|
|-1-1-1-1-1-1-0---1-1-1-1-1-1-0---5---4---1-1-1-1-1-1-0---0---0---1-1-1-1-1-1-0---1-1-1-1-1-1-6-6-6-6-6-6-1-1-1-1-1-1-0---1-1-1-1-1-1-0---0-|
|-1-1-1-1-1-1-0---1-1-1-1-1-1-0---5---4---1-1-1-1-1-1-0---0---0---1-1-1-1-1-1-0---1-1-1-1-1-1-------------1-1-1-1-1-1-0---1-1-1-1-1-1-0---0-|
                              pm.......


great song by 36 crazyfists.  it sounds better if you have a couple 
different levels of distortion for the intro.  any questions e-mail
me at guitarhead1685@yahoo.com.
Comments