36 Crazyfists - The Heart And The Shape Chords & Tabs

 

The Heart And The Shape Chords & Tabs

36 Crazyfists Chords & Tabs

Version: 4 Type: Tab 0 ratings
1 star 2 stars 3 stars 4 stars 5 stars
comments

The Heart And The Shape Tab

Artist: 36 Crazyfists
Song: The Heart and The Shape       
   
h= hold note
p=pull off
/=slide
^=harmonic
                        
D|---------------------------------------------|
A|---------------------------------------------|
F|---10p9-9-10p9-9---9------10p9-9------10p9-9-|  2X
C|-0~--------------0----8~----------7~---------|
G|---------------------------------------------|
C|---------------------------------------------|



D||--------------------------------------------------------------||
A||--------------------------------------------------------------||      
F||------------------------------10-1010101010-9-99-999----------||  2X   
C||--0--3-2-0-2--0-3-2-0-2--0-3--8--8-8-8-8-8--7-77-777----------||
G||--0--3-2-0-2--0-3-2-0-2--0-3--8--8-8-8-8-8--7-77-777----------||
C||--0--3-2-0-2--0-3-2-0-2--0-3--8--8-8-8-8-8--7-77-777----------||
			      ^

juts went through jour eyes....
D||------------------------------------------------------------------||
A||------------------------------------------------------------------||      
F||--------------------------------------------------10-9---10-9-----||  2X    
C||--8/0-0-0-000-0--8/0-0-0-0-000--8/0-0-0-000-0---------------------||
G||--8/0-0-0-000-0--8/0-0-0-0-000--8/0-0-0-000-0---8------7----------||
C||--8/0-0-0-000-0--8/0-0-0-0-000--8/0-0-0-000-0---8------7----------||
							       ^

and so I grew the hart.....
D|---------------------------------------------|
A|---------------------------------------------|
F|---10p9-9-10p9-9---9------10p9-9------10p9-9-|  2X
C|-0~--------------0----8~----------7~---------|
G|---------------------------------------------|
C|---------------------------------------------|

D||--------------------------------------------------------------||
A||--------------------------------------------------------------||      
F||------------------------------10-1010101010-9-99-999----------||  2X   
C||--0--3-2-0-2--0-3-2-0-2--0-3--8--8 8 8 8 8 -7-77-777----------||
G||--0--3-2-0-2--0-3-2-0-2--0-3--8--8 8 8 8 8 -7-77-777----------||
C||--0--3-2-0-2--0-3-2-0-2--0-3--8--8 8 8 8 8 -7-77-777----------||
			      ^


d||--------------------------------------------------------||
A||--------------------------------------------------------||      
F||--------------------------------------------------------|| 
C||--8p0-0-0--8p0-0-0-7-8--8p0-0-0--8p0-0-0--5-7-----------||
G||--8p0-0-0--8p0-0-0-7-8--8p0-0-0--8p0-0-0--5-7-----------||
C||--8p0-0-0--8p0-0-0-7-8--8p0-0-0--8p0-0-0--5-7-----------||

d||--------------------------------------------------------||
A||--------------------------------------------------------||      
F||--------------------------------------------------------|| 
C||--------------------------------------------------------|| 
G||--------------------------------------------------------|| 
C||--8p0-0-0--8p0-0-0-7-8--8p0-0-0--8p0-0-0--3-5-----------||


Now the bottle plays...
D||------------------------------------------------------------------||
A||------------------------------------------------------------------||      
F||--------------------------------------------------10-9---10-9-----||  2X    
C||--8/0-0-0-000-0--8/0-0-0-0-000--8/0-0-0-000-0---------------------||
G||--8/0-0-0-000-0--8/0-0-0-0-000--8/0-0-0-000-0---8------7----------||
C||--8/0-0-0-000-0--8/0-0-0-0-000--8/0-0-0-000-0---8------7----------||
							       ^

and so I grew the hart.....
D|---------------------------------------------|
A|---------------------------------------------|
F|---10p9-9-10p9-9---9------10p9-9------10p9-9-|  2X
C|-0~--------------0----8~----------7~---------|
G|---------------------------------------------|
C|---------------------------------------------|
[ Tab from: http://www.guitartabs.cc/tabs/0-9/36_crazyfists/the_heart_and_the_shape_tab_ver_4.html ]
D||--------------------------------------------------------------||
A||--------------------------------------------------------------||      
F||------------------------------10-1010101010-9-99-999----------||  2X   
C||--0--3-2-0-2--0-3-2-0-2--0-3--8--8 8 8 8 8 -7-77-777----------||
G||--0--3-2-0-2--0-3-2-0-2--0-3--8--8 8 8 8 8 -7-77-777----------||
C||--0--3-2-0-2--0-3-2-0-2--0-3--8--8 8 8 8 8 -7-77-777----------||
			      ^

Help me back to awake
d||--------------------------------------------------------||
A||--------------------------------------------------------||      
F||--------------------------------------------------------|| 
C||--8p0-0-0--8p0-0-0-7-8--8p0-0-0--8p0-0-0--5-7-----------||
G||--8p0-0-0--8p0-0-0-7-8--8p0-0-0--8p0-0-0--5-7-----------||
C||--8p0-0-0--8p0-0-0-7-8--8p0-0-0--8p0-0-0--5-7-----------||

d||--------------------------------------------------------||
A||--------------------------------------------------------||      
F||--------------------------------------------------------|| 
C||--------------------------------------------------------|| 
G||--------------------------------------------------------|| 
C||--8p0-0-0--8p0-0-0-7-8--8p0-0-0--8p0-0-0--3-5-----------||


There were sentences............
d||----------------------------------------||
A||----------------------------------------||      
F||----------------------------------------|| 
C||--8/0-0--8/0-0--2h3--8/0-0--8/0-0--3-5--||
G||--8/0-0--8/0-0--2h3--8/0-0--8/0-0--3-5--||
C||--8/0-0--8/0-0--2h3--8/0-0--8/0-0--3-5--||

d||---------------------------------------------------------------------||
A||---------------------------------------------------------------------||      
F||---------------------------------------------------------------------|| 
C||--3---3---------3-------------------------------------3--------------||
G||----0---0--3-5----0--3--0--2-3-----0--3-0--2-3-----0-----0--3-5------||
C||----0---0--3-5----0-----0--2-3--3--0----0--2-3--3--0-----0--3-5------||
     ^^  ^         ^    ^          ^  ^  ^         ^     ^

guitar 1
D|----|
A|----|
F|----|
C|-0~-|
G|-0~-|
C|-0~-|

guitar 2
D|---------------------------------------------|
A|---------------------------------------------|
F|---10p9-9-10p9-9---9------10p9-9------10p9-9-|  2X
C|-0~--------------0----8~----------7~---------|
G|---------------------------------------------|
C|---------------------------------------------|


D||--------------------------------------------------------------||
A||--------------------------------------------------------------||      
F||------------------------------10-1010101010-9-99-999----------||  2X   
C||--0--3-2-0-2--0-3-2-0-2--0-3--8--8 8 8 8 8 -7-77-777----------||
G||--0--3-2-0-2--0-3-2-0-2--0-3--8--8 8 8 8 8 -7-77-777----------||
C||--0--3-2-0-2--0-3-2-0-2--0-3--8--8 8 8 8 8 -7-77-777----------||
			      ^


Help me back to awake
d||--------------------------------------------------------||
A||--------------------------------------------------------||      
F||--------------------------------------------------------|| 
C||--8p0-0-0--8p0-0-0-7-8--8p0-0-0--8p0-0-0--5-7-----------||
G||--8p0-0-0--8p0-0-0-7-8--8p0-0-0--8p0-0-0--5-7-----------||
C||--8p0-0-0--8p0-0-0-7-8--8p0-0-0--8p0-0-0--5-7-----------||

d||--------------------------------------------------------||
A||--------------------------------------------------------||      
F||--------------------------------------------------------|| 
C||--------------------------------------------------------|| 
G||--------------------------------------------------------|| 
C||--8p0-0-0--8p0-0-0-7-8--8p0-0-0--8p0-0-0--3-5-----------||


There were sentences....
d||----------------------------------------||
A||----------------------------------------||      
F||----------------------------------------|| 
C||--8/0-0--8/0-0--2h3--8/0-0--8/0-0--3-5--||
G||--8/0-0--8/0-0--2h3--8/0-0--8/0-0--3-5--||
C||--8/0-0--8/0-0--2h3--8/0-0--8/0-0--3-5--||

d||-----------------------------------------------------------------------||
A||-----------------------------------------------------------------------||
F||-----------------------------------------------------------------------||
C||--3---3---------3-------------------------------------3--0--3-5--8-0~--||
G||----0---0--3-5----0--3--0--2-3-----0--3-0--2-3-----0-----0--3-5--8-0~--||
C||----0---0--3-5----0-----0--2-3--3--0----0--2-3--3--0-----0--3-5--8-0~--||
     ^^  ^         ^    ^          ^  ^  ^         ^     ^

and thats how it's played!!!
Comments