36 Crazyfists - The Heart And The Shape Chords & Tabs

 

The Heart And The Shape Chords & Tabs

36 Crazyfists Chords & Tabs

Version: 1 Type: Tab 0 ratings
1 star 2 stars 3 stars 4 stars 5 stars
comments

The Heart And The Shape Tab

36 Crazyfists
The Heart and the Shape
dropped d(tuned down 1 whole step)

pm=palm mute
* =pinch harmonic

Intro                                               x2
|-----------------------------------------------------|
|-----------------------------------------------------|
|---10/9---9---10/9---9---9-----10/9---9-----10/9---9-|
|-0------0---0------0---0---0-8------8---8-7------7---|
|-----------------------------------------------------|
|-----------------------------------------------------|

                                                                x2
|-----------------------------------------------------------------|
|-----------------------------------------------------------------|
|--------------------------------10--1010101010-9---9-91010-9-9-9-|
|-0---3-2-0-2---0-3-2-0-2---------8---8-8-8-8-8-7---7-7-7-7-7-7-7-|
|-0---3-2-0-2---0-3-2-0-2---0-----8---8-8-8-8-8-7---7-7-7-7-7-7-7-|
|-0---3-2-0-2---0-3-2-0-2---0-3*--8---8-8-8-8-8-7---7-7-7-7-7-7-7-|

Verse 
|----------------------------------------------------------------------------------------|
|----------------------------------------------------------------------------------------|
|-----------------------------------------------------------------------10--------10--9*-|
|-8---0---0---0-0-0--0--8---0---0---0--0-0-0--8---0---0----0-0-0--0--8------8--7---------|
|-8---0---0---0-0-0--0--8---0---0---0--0-0-0--8---0---0----0-0-0--0--8---------7---------|
|-8---0---0---0-0-0--0--8---0---0---0--0-0-0--8---0---0----0-0-0--0--8---------7---------|
     pm...............     pm...............     pm................
[ Tab from: http://www.guitartabs.cc/tabs/0-9/36_crazyfists/the_heart_and_the_shape_tab.html ]
Bridge
|-------------------------------------------------------------------------------------------------------------------------------|
|-------------------------------------------------------------------------------------------------------------------------------|
|-------------------------------------------------------------------------------------------------------------------------------|
|-8-0---0---0-8-0---0---0-7---8---8-0---0---0-8-0---0---0-3---5-----------------------------------8-0---0---0-8-0---0---0-3---5-|
|-8-0---0---0-8-0---0---0-7---8---8-0---0---0-8-0---0---0-3---5-----------------------------------8-0---0---0-8-0---0---0-3---5-|
|-8-0---0---0-8-0---0---0-7---8---8-0---0---0-8-0---0---0-3---5---8-0---0---0-8-0---0---0-7---8---8-0---0---0-8-0---0---0-3---5-|

                                x2
|---------------------------------|-----------------------------------------------------------------------------------|
|---------------------------------|-----------------------------------------------------------------------------------|
|---------------------------------|-----------------------------------------------------------------------------------|
|-8/0---8/0---7-8-8/0---8/0---3-5-|-----0------0--7--8------0------0--3--5------0------7--8------0------0--3--5--8--0-|
|-8/0---8/0---7-8-8/0---8/0---3-5-|-8*--0--8*--0--7--8--8*--0--3*--0--3--5------0--3*--7--8------0--8*--0--3--5--8--0-|
|-8/0---8/0---7-8-8/0---8/0---3-5-|-----0------0--7--8------0------0--3--5--3*--0------7--8--3*--0------0--3--5--8--0-|

that's about as close as i can tell.  any questions e-mail
me at guitarhead@yahoo.com.
Comments