36 Crazyfists - The Heart And The Shape Chords & Tabs

 

The Heart And The Shape Chords & Tabs

36 Crazyfists Chords & Tabs

Version: 1 Type: Bass Tab 0 ratings
1 star 2 stars 3 stars 4 stars 5 stars
comments

The Heart And The Shape Bass Tab

   
#----------------------------------PLEASE NOTE---------------------------------#
#This file is the author's own work and represents their interpretation of the-#
#song. You may only use this file for private study, scholarship, or research.-#
#------------------------------------------------------------------------------#

36 Crazyfists
The Heart And The Shape
A Snow Capped Romance
Tabbed By Adam Williams

Tuning C G C F

This album hasn't even been released yet but if you want to hear the song 'The
heart and The shape' go to roadrunnerrecords.com and download it, I'll assure you
that you will not be disappointed! 

Intro: x2 (chorus)
 
|----------------------------------------------------------------|
|----------------------------------------------------------------|
|----------------------------------------------------------------|
|--0--3-2-0-2--0--3-2-0-2-2-0----8-8-8-8-8-8-8-8-7-7-7-7-7-7-7-7-|

 
Verse: x3
|----------------------------------|
|----------------------------------|
|----------------------------------|
|---8\--------0----0--0-0-0--------| 
                       

Verse fill: x1 
|-----------------------------------------|
|-----------------------------------------|
|-----8h7-7------8h7-7--------------------|
|---8----------7--------------------------|

verse: x3

Verse fill: x1

Pre-chorus: x2

|----------------------------------------------------------------|
|--0-3-2-0-2-0-3-2-0-2-2-0----8-8-8-8-8-8-8-8-7-7-7-7-7-7-7-7-|
|----------------------------------------------------------------|
|----------------------------------------------------------------|

Chorus: same as intro: x2


Post-chorus:

X1 
|-------------------------------------|
|-------------------------------------|
|-------------------------------------|
|---8--0-0-0-8--0-0-0----7--8---------|
[ Tab from: http://www.guitartabs.cc/tabs/0-9/36_crazyfists/the_heart_and_the_shape_btab.html ]
X1 
|-------------------------------------|
|-------------------------------------|
|-------------------------------------|
|---8--0-0-0-8--0-0-0----3--5---------|

X1
|-------------------------------------|
|---8--0-0-0-8--0-0-0----7--8---------|
|-------------------------------------|
|-------------------------------------|

X1
|-------------------------------------|
|-------------------------------------|
|-------------------------------------|
|---8--0-0-0-8--0-0-0----3--5---------|

Verse: x3

Verse fill: x1

Verse: x3

Verse fill: x1

Pre-chorus: x2

Chorus: x2

Post-chorus: 
 
Breakdown:

X1 
|----------------------------------------|
|----------------------------------------|
|----------------------------------------|
|---8\--0---8\---0-----0-/5--------------|

X3 
|----------------------------------------|
|----------------------------------------|
|----------------------------------------|
|---8\--0---8\---0-----03/5-------------|  

 

X1 
|--------------------------------------|
|--------------------------------------|
|--------------------------------------|
|---8\---0---8\---0-----0--7-8---------|

X3 
|-----------------------------------------|
|-----------------------------------------|
|-----------------------------------------|
|---8\---0---8\---0-----0--3-5------------| 

Interlude:
  
|--------------------------------------|
|--------------------------------------|
|-------------------------------.------|
|---0~-----8~---7~---0~------8~-7------|


 Chorus: x2

Post-chorus: 

Breakdown (all, repeat as before)

Last notes (outro): x1 

 
|-----------------------------------------|
|-----------------------------------------|
|-----------------------------------------|
|---8---0~--------------------------------|

 
Thank you please rate this tab

================================================================================
Comments