36 Crazyfists - At The End Of August Chords & Tabs

 

At The End Of August Chords & Tabs

36 Crazyfists Chords & Tabs

Version: 1 Type: Tab 0 ratings
1 star 2 stars 3 stars 4 stars 5 stars
comments

At The End Of August Tab

36 Crazyfists
At the End of August
dropped d(tuned down 1 whole step)


Intro
|----------------------------------------------------------------------------------------------------------------------------------|
|----------------------------------------------------------------------------------------------------------------------------------|
|-11111111111111111111111111111111-9-9-9-9-9-9-9-9-9-9-9-9-9-9-9-9-7-7-7-7-7-7-7-7-7-7-7-7-7-7-7-7-6-6-6-6-6-6-6-6-6-6-6-6-6-6-6-6-|
|--x-x-x-x-x-x-x-x-x-x-x-x-x-x-x-x-x-x-x-x-x-x-x-x-x-x-x-x-x-x-x-x-x-x-x-x-x-x-x-x-x-x-x-x-x-x-x-x-x-x-x-x-x-x-x-x-x-x-x-x-x-x-x-x-|
|--9-9-9-9-9-9-9-9-9-9-9-9-9-9-9-9-7-7-7-7-7-7-7-7-7-7-7-7-7-7-7-7-5-5-5-5-5-5-5-5-5-5-5-5-5-5-5-5-4-4-4-4-4-4-4-4-4-4-4-4-4-4-4-4-|
|----------------------------------------------------------------------------------------------------------------------------------|

|----------------------------------------------------------------------------------------------------------------------------------|
|----------------------------------------------------------------------------------------------------------------------------------|
|-11111111111111111111111111/12/11-9-9-9-9-9-9-9-9-9-9-9-9-9/11/9--7-7-7-7-7-7-7-7-7-7-7-7-7/9/7---6-6-6-6-6-6-6-6-6-6-6-6-6-6-6-6-|
|--x-x-x-x-x-x-x-x-x-x-x-x-x-------x-x-x-x-x-x-x-x-x-x-x-x-x-------x-x-x-x-x-x-x-x-x-x-x-x-x-------x-x-x-x-x-x-x-x-x-x-x-x-x-x-x-x-|
|--9-9-9-9-9-9-9-9-9-9-9-9-9/10/9--7-7-7-7-7-7-7-7-7-7-7-7-7/9/7---5-5-5-5-5-5-5-5-5-5-5-5-5/7/5---4-4-4-4-4-4-4-4-4-4-4-4-4-4-4-4-|
|----------------------------------------------------------------------------------------------------------------------------------|

|----------------------------------------------------------------------------------------------------------------------------------|
|----------------------------------------------------------------------------------------------------------------------------------|
|-11111111111111111111111111111111111111111111111111-9-9-9-9-9-9-9-7-7-7-7-7-7-7-7-7-7-7-7-7-7-7-7-7-7-7-7-7-7-7-7-7-6-6-6-6-6-6-6-|
|--x-x-x-x-x-x-x-x-x-x-x-x-x-x-x-x-x-x-x-x-x-x-x-x-x-x-x-x-x-x-x-x-x-x-x-x-x-x-x-x-x-x-x-x-x-x-x-x-x-x-x-x-x-x-x-x-x-4-4-4-4-4-4-4-|
|--9-9-9-9-9-9-9-9-9-9-9-9-9-9-9-9-7-7-7-7-7-7-7-7-7-7-7-7-7-7-7-7-5-5-5-5-5-5-5-5-5-5-5-5-5-5-5-5-4-4-4-4-4-4-4-4-4-4-4-4-4-4-4-4-|
|----------------------------------------------------------------------------------------------------------------------------------|
[ Tab from: http://www.guitartabs.cc/tabs/0-9/36_crazyfists/at_the_end_of_august_tab.html ]
Verse                           x3
|---------------------------------|-----------------------------|---------------------------------|
|---------------------------------|-----------------------------|---------------------------------|
|---------------------------------|-----------------------------|---------------------------------|
|-4---2-4---2-4---2-5---0-4-2-0-2-|-4---2-5---2-4---2-5---0-2-0-|-4---2-5---2-4---2-5---0-5-7-7-7-|
|-4---2-4---2-4---2-5---0-4-2-0-2-|-4---2-5---2-4---2-5---0-2-0-|-4---2-5---2-4---2-5---0-5-7-7-7-|
|-4---2-4---2-4---2-5---0-4-2-0-2-|-4---2-5---2-4---2-5---0-2-0-|-4---2-5---2-4---2-5---0-5-7-7-7-|

Chorus

|-----------------------------------------------------------------------------------------------------------------------------------|
|-----------------------------------------------------------------------------------------------------------------------------------|
|-------------------------------------------------------------------------------------------------------------7-7-7-7-6-6-6-6-6-6-6-|
|-9-9-9-9-9-9-9-9-9-9-9-9-9-9-9-9-7-7-7-7-7-7-7-7-7-7-7-7-7-7-7-7-5-----5-----5---5-----5-----5-----4-4-4-4-4-x-x-x-x-x-x-x-x-x-x-x-|
|-9-9-9-9-9-9-9-9-9-9-9-9-9-9-9-9-7-7-7-7-7-7-7-7-7-7-7-7-7-7-7-7-5-----5-----5---5-----5-----5-----4-4-4-4-4-5-5-5-5-4-4-4-4-4-4-4-|
|-9-9-9-9-9-9-9-9-9-9-9-9-9-9-9-9-7-7-7-7-7-7-7-7-7-7-7-7-7-7-7-7-5-----5-----5---5-----5-----5-----4-4-4-4-4-----------------------|

|------------------------------------------------------------------------------------------------------------------------------------|
|------------------------------------------------------------------------------------------------------------------------------------|
|------------------------------------------------------------------------------------------------------------------------------------|
|-9-9-9-9-9-9-9-9-9-9-9-9-9-9-9-9-1111111111111111111111111111111112121212121212121214141414141414-2-2-2-2-2-2-2-2-2-4-4-4-4-4-4-4-4-|
|-9-9-9-9-9-9-9-9-9-9-9-9-9-9-9-9-1111111111111111111111111111111112121212121212121212121212121212-2-2-2-2-2-2-2-2-2-4-4-4-4-4-4-4-4-|
|-9-9-9-9-9-9-9-9-9-9-9-9-9-9-9-9-1111111111111111111111111111111112121212121212121212121212121212-2-2-2-2-2-2-2-2-2-4-4-4-4-4-4-4-4-|

Bridge                                           x2
|--------------------------------------------------|
|--------------------------------------------------|
|---11----------11---------11------11---11-12---12-|
|-9----9-----------9----------9-------9-------9----|
|------------12---------10-------------------------|
|--------------------------------------------------|
                                                                                                                               x2
|--------------------------------------------------------------------------------------------------------------------------------|
|--------------------------------------------------------------------------------------------------------------------------------|
|------------------------------------------------------------------7-7-7---7-7-7---7-7-7---7-7-7---6-6-6---6-6-6---6-6-6---6-6-6-|
|-111111--111111--111111--111111--111111--111111--111111--111111---5-5-5---5-5-5---5-5-5---5-5-5---4-4-4---4-4-4---4-4-4---4-4-4-|
|--9-9-9---9-9-9---9-9-9---9-9-9---7-7-7---7-7-7---7-7-7---7-7-7---5-5-5---5-5-5---5-5-5---5-5-5---4-4-4---4-4-4---4-4-4---4-4-4-|
|--9-9-9---9-9-9---9-9-9---9-9-9---7-7-7---7-7-7---7-7-7---7-7-7---5-5-5---5-5-5---5-5-5---5-5-5---4-4-4---4-4-4---4-4-4---4-4-4-|

pretty easy song once you get the rhythm down.  it's not %100 correct, but pretty dang close. any 
questions e-mail me at guitarhead1685@yahoo.com.			
Comments