36 Crazyfists - At The End Of August Chords & Tabs

 

At The End Of August Chords & Tabs

36 Crazyfists Chords & Tabs

Version: 2 Type: Bass Tab 0 ratings
1 star 2 stars 3 stars 4 stars 5 stars
comments

At The End Of August Bass Tab

I started this tab months ago and never got round to posting it. The strumming isn't 
but other than that I'm pretty sure that this is accurate!

Artist: 36 crazyfists
Song: At the end of August
Album: A snow-capped romance


Intro/Pre Chorus:
Come in a 0:22

G  ------9---9---9---9--------------------------------|
D  ------------------------------12----12---12--------|
A  --7-7---7---7---7---------9-9-----9----9----9------|
E  ---------------------------------------------------|
C# ---------------------------------------------------|

G  ------------------------------------------------------------------|
D  --------10----10----10----10h12p10---------14----14-----14--------|
A  --10-10----10----10----10------------12-12----12----12-----12-----|
E  ------------------------------------------------------------------|
C# ------------------------------------------------------------------|


Verse:

G  ---------------------------|
D  ---------------------------|
A  ---------------------------|
E  ---------------------------|
C# --3-1-3-1-3-1-3-4-3-1h3----|


Chorus/Break pt 2:
[ Tab from: http://www.guitartabs.cc/tabs/0-9/36_crazyfists/at_the_end_of_august_btab_ver_2.html ]
G  --------------------------------------------------------|
D  --------------------------------------------------------|
A  --7-7-7-7-7-7-7--5-5-5-5-5-5----------------------------|
E  -------------------------------8-8--8-8-8-8--7-7-7-7-7--|
C# --------------------------------------------------------|

G  --------------------------------------------------------------------|
D  --------------------------------------------------------------------|
A  -7-7-7-7-7-7-7--9-9-9-9-9-9-9--10-10-10-10-10-10--12-12-12-12-12-12-|
E  --------------------------------------------------------------------|
C# --------------------------------------------------------------------|

G  ---------------------------|
D  ---------------------------|
A  --14-14-14-14-14-14-14-----|
E  ---------------------------|
C# ---------------------------|


Break pt 1:

G  -------------------------------------------------------------------|
D  -------------------------------------------------------------------|
A  -------------------------------------------------------------------|
E  --12-12-12-12-12-12-12--10-10-10-10-10-10-10--8-8-8-8-8-8-8-8--7~--|
C# -------------------------------------------------------------------|


Outro


G  ------------|
D  ------------|
A  ------------|
E  ------------|
C# --3--3h4----|


Intro
Verse 1
Chorus
Verse 2
Chorus
Break pt 1
Break pt 2
Chorus
Verse 3
Outro

Tabbed by Pete Earnshaw
Comments